Song name
# A B C D E F G H I J K L M N O P Q R S T U V W X Y Z

Blink 182 - Aliens Exist tab

 Intro: (After Drums)
 E|------------------------------------------------------------------|
 B|------------------------------------------------------------------|
 G|------------------------------------------------------------------|
 D|4444-4444-4444-4444-4---------------------------------------------| (Let Ring)
 A|2222-2222-2222-2222-2---------------------------------------------|
 E|------------------------------------------------------------------|
pm(---- ---- ---- ----)  

 Verse: PICK SLIDE (After Bass)
 E|------------------------------------------------------------------|
 B|------------------------------------------------------------------|
 G|------------------------------------------------------------------|
 D|444------------------444------------------------------------------|
 A|222-44-666-22--------222-44-666-22--------------------------------|
 E|----22-444-00------------22-444-00--------------------------------|

 Verse: (Palm Muted) What if people knew these things are real...
 E|------------------------------------------------------------------|
 B|------------------------------------------------------------------|
 G|------------------------------------------------------------------|
 D|4444-4444---------------------------------------------------------|x4
 A|2222-2222-4444-4444-6666-6666-2222-2222---------------------------|
 E|----------2222-2222-4444-4444-0000-0000---------------------------|

 Chorus: Up all night long...
 E|------------------------------------------------------------------|
 B|------------------------------------------------------------------|
 G|------------------------------------------------------------------|
 D|4---4------1-1-1-1-2-2-2-2-1-1-1-1-2-2-2-2-------4----------------|
 A|2-4-2-4-----2-2-2-2-2-2-2-2-2-2-2-2-2-2-2-2--4-2-2--4-2-----------|
 E|--2---2--------------------------------------2-0----2-0-----------|

 Verse: 
 E|------------------------------------------------------------------|
 B|------------------------------------------------------------------|
 G|------------------------------------------------------------------|
 D|444------------------444------------------------------------------|
 A|222-44-666-22--------222-44-666-22--------------------------------|
 E|----22-444-00------------22-444-00--------------------------------|

 Verse: (Palm Muted) I'm Still a skeptic, yes you know me... 
 E|------------------------------------------------------------------|
 B|------------------------------------------------------------------|
 G|------------------------------------------------------------------|
 D|4444-4444---------------------------------------------------------|x4
 A|2222-2222-4444-4444-6666-6666-2222-2222---------------------------|
 E|----------2222-2222-4444-4444-0000-0000---------------------------|

 Chorus: Up all night long...
 E|------------------------------------------------------------------|
 B|------------------------------------------------------------------|
 G|------------------------------------------------------------------|
 D|4---4------1-1-1-1-2-2-2-2-1-1-1-1-2-2-2-2-------4-------4--------|
 A|2-4-2-4-----2-2-2-2-2-2-2-2-2-2-2-2-2-2-2-2--4-2-2---4-2-2--------|
 E|--2---2--------------------------------------2-0-----2-0----------|

 Solo:
 E|------------------------------------------------------------------|
 B|------------------------------------------------------------------|
 G|----8888-8888-6666-6666-9999-9999-8888-8888-----------------------|
 D|4-----------------------------------------------------------------|Hold B
 A|2-----------------------------------------------------------------|
 E|------------------------------------------------------------------|

 Bridge: Dark and scary...
 E|------------------------------------------------------------------|
 B|------------------------------------------------------------------|
 G|------------------------------------------------------------------|
 D|---------------4444------------------4444-------------------------|
 A|6666-4444-2222-2222---6666-4444-2222-2222-------------------------|
 E|4444-2222-0000--------4444-2222-0000------------------------------|

 Chorus: Up all night long...
 E|------------------------------------------------------------------|
 B|------------------------------------------------------------------|
 G|------------------------------------------------------------------|
 D|4---4------1-1-1-1-2-2-2-2-1-1-1-1-2-2-2-2-------4-------4--------|
 A|2-4-2-4-----2-2-2-2-2-2-2-2-2-2-2-2-2-2-2-2--4-2-2---4-2-2--------|
 E|--2---2--------------------------------------2-0-----2-0----------|

 Outro: I'm not like you guys...
 E|------------------------------------------------------------------|
 B|------------------------------------------------------------------|
 G|------------------------------------------------------------------|
 D|----4------4------------------------------------------------------|
 A|4-2-2--4-2-2------------------------------------------------------|
 E|2-0----2-0--------------------------------------------------------|
























 












Tap to rate this tab
# A B C D E F G H I J K L M N O P Q R S T U V W X Y Z