Song name
# A B C D E F G H I J K L M N O P Q R S T U V W X Y Z

Blink 182 - All The Small Things tab

Intro:
E|-----|------------------------------------------------------------------|
B|-----|------------------------------------------------------------------|
G|-----|-----------------5-5-5-5-5-5-5-5----------------------------------|
D|-5-3-|-5-5-5-5-5-5-5-5-3-3-3-3-3-3-3-3----------------------------------| 2x
A|-5-3-|-3-3-3-3-3-3-3-3-----------------5-5-5-5-5-5-5-5-x-x-x-x-x-x-4-4--|
E|-3-1-|---------------------------------3-3-3-3-3-3-3-3-x-x-x-x-x-x-1-1--|

Verse:
E|------------------------------------------------------------------------|
B|------------------------------------------------------------------------|
G|------------------------------------------------------------------------|
D|-5-5-5-5-5-5-5-5--------------------------------------------------------| 4x
A|-3-3-3-3-3-3-3-3-5-5-5-5-5-5-5-5-3-3-3-3-3-3-3-3-5-5-5-5-5-5-5-5--------|
E|-----------------3-3-3-3-3-3-3-3-1-1-1-1-1-1-1-1-3-3-3-3-3-3-3-3--------|
ends with
E|-----------------------------|
B|-----------------------------|
G|-5---------------------------|
D|-5---------------------------|
A|-3---------------------------|
E|-----3----1------------------|

Chorus:
E|--------------------------------------------------------------------|
B|--------------------------------------------------------------------|
G|-5-5-5-5-5-5-5-5-5-5-5-5-5-5-5-5------------------------------------|
D|-5-5-5-5-5-5-5-5-5-5-5-5-5-5-5-5-5-5-5-5-5-5-5-5-3-3-3-3-3-3-3-3----| 2x
A|-3-3-3-3-3-3-3-3-3-3-3-3-3-3-3-3-5-5-5-5-5-5-5-5-3-3-3-3-3-3-3-3----|
E|---------------------------------3-3-3-3-3-3-3-3-1-1-1-1-1-1-1-1----|

Bridge:
E|--------------------------------------------------------------------|
B|--------------------------------------------------------------------|
G|-----------------5-5-5-5-4-4-4-4------------------------------------|
D|-5-5-5-5-5-5-5-5-3-3-3-3-2-2-2-2------------------------------------| 2x
A|-3-3-3-3-3-3-3-3-----------------5-5-5-5-5-5-5-5-x-x-x-x-x-x-3-3----|
E|---------------------------------3-3-3-3-3-3-3-3-x-x-x-x-x-x-1-1----|

Verse:
E|------------------------------------------------------------------------|
B|------------------------------------------------------------------------|
G|------------------------------------------------------------------------|
D|-5-5-5-5-5-5-5-5--------------------------------------------------------| 4x
A|-3-3-3-3-3-3-3-3-5-5-5-5-5-5-5-5-3-3-3-3-3-3-3-3-5-5-5-5-5-5-5-5--------|
E|-----------------3-3-3-3-3-3-3-3-1-1-1-1-1-1-1-1-3-3-3-3-3-3-3-3--------|
ends with
E|-----------------------------|
B|-----------------------------|
G|-5---------------------------|
D|-5---------------------------|
A|-3---------------------------|
E|-----3----1------------------|

Chorus:
E|--------------------------------------------------------------------|
B|--------------------------------------------------------------------|
G|-5-5-5-5-5-5-5-5-5-5-5-5-5-5-5-5------------------------------------|
D|-5-5-5-5-5-5-5-5-5-5-5-5-5-5-5-5-5-5-5-5-5-5-5-5-3-3-3-3-3-3-3-3----| 2x
A|-3-3-3-3-3-3-3-3-3-3-3-3-3-3-3-3-5-5-5-5-5-5-5-5-3-3-3-3-3-3-3-3----|
E|---------------------------------3-3-3-3-3-3-3-3-1-1-1-1-1-1-1-1----|

Solo:
E|--------------------------------------------------------------------|
B|--------------------------------------------------------------------|
G|-5--------5---5---5---5---5---5---5---5---4---4---4---5---5---5-----|
D|-5--3--5----5---5---5---5---5---5---5---5---5---5---5---5---5---5---| 4x
A|-3--3--5------------------------------------------------------------|
E|----1--3------------------------------------------------------------|

Outro:
E|--------------------------------------------------------------------|
B|--------------------------------------------------------------------|
G|-5-5-5-5-5-5-5-5-5-5-5-5-5-5-5-5------------------------------------|
D|-5-5-5-5-5-5-5-5-5-5-5-5-5-5-5-5-5-5-5-5-5-5-5-5-3-3-3-3-3-3-3-3----| 4x
A|-3-3-3-3-3-3-3-3-3-3-3-3-3-3-3-3-5-5-5-5-5-5-5-5-3-3-3-3-3-3-3-3----|
E|---------------------------------3-3-3-3-3-3-3-3-1-1-1-1-1-1-1-1----|


This is the Best of them all!!!!
Tap to rate this tab
 
# A B C D E F G H I J K L M N O P Q R S T U V W X Y Z