Guitaretab - guitar tabs
Song name
# A B C D E F G H I J K L M N O P Q R S T U V W X Y Z

Blink 182 - Alone tab

Artist:Blink 182

Song: Alone

Album: Fly swatter

Tabbed By: Dorteater


This is how the begining goes i couldn't realy hear any of the chords.
[ Tab from: http://www.guitaretab.com/b/blink-182/25.html ]
e)---------------------------------------|
b)---------------------------------------|
g)---------------------------------------|
D)---3-3h-2-0-----5-3-2------------------|
A)-0----------3--------------------------|
E)---------------------------------------|

e)----------------------------------------|
b)----------------------------------------|
g)----------------------------------------|
D)---3-3h-2-0-----5-3-2-------------------|
A)-0----------3---------------------------|  x2
E)----------------------------------------|

h=hammer
Related for Alone tab
Advertisement will be closed in 10 seconds