Song name
# A B C D E F G H I J K L M N O P Q R S T U V W X Y Z

Blink 182 - Anthem Part Ii tab

Help us improve GuitareTab! Take a short survey!
INTRO:

E]-------------------------------------------------------------------------------------]
B]---8----------8------------6-----------6---------5---------5----------6-------------6]
G]----------5---------5------------5----------5---------5---------5------------5-------]
D]-------------------------------------------------------------------------------------]
A]-------------------------------------------------------------------------------------]
E]-------------------------------------------------------------------------------------]


E]-------------------------------------------------------------------------------------]
B]-------------------------------------------------------------------------------------]
G]-------------------------------------------------------------------------------------]
D]-------0-3----------2----------0-3-----------2-----------0-3---------2--------0-----0]
A]--3-3--------3--3-------3--3----------3--3-------3--3----------3--3-----3--3----3-3--]
E]-------------------------------------------------------------------------------------]



E]-------------------------------------------------------------------------------------]
B]-------------------------------------------------------------------------------------]
G]-------------------------------------------------------------------------------------]
D]-----5--5--5--5--------5--5--5--5----------------------------------------------------]
A]-----3--3--3--3--------3--3--3--3----------------------------------------------------]
E]-------------------------------------------------------------------------------------]


E]-------------------------------------------------------------------------------------]
B]-------------------------------------------------------------------------------------]
G]--9--9--9--10--10--10--9--9--9--5--5--5--7--7--7--7--7-------------------------------] 
D]--X--X--X--X---X---X---X--X--X--X--X--X--X--X--X--X--X-------------------------------]
A]--7--7--7--8---8---8---7--7--7--3--3--3--5--5--5--5--5-------------------------------]
E]-------------------------------------------------------------------------------------]
                                      (X3)

E]-------------------------------------------------------------------------------------]
B]-------------------------------------------------------------------------------------]
G]--9--9--9--10--10--10--5--5--5--5--5--5--5--5--5--5----------------------------------]
D]--X--X--X--X---X---X---X--X--X--X--X--X--X--X--X--X----------------------------------]
A]--7--7--7--8---8---8---3--3--3--3--3--3--3--3--3--3----------------------------------]
E]-------------------------------------------------------------------------------------]

VERSE:

E]-------------------------------------------------------------------------------------]
B]-------------------------------------------------------------------------------------]
G]--9--9--9--9-------------------------------------------------------------------------]
D]--X--X--X--X-------------------------------------------------------------------------]
A]--7--7--7--7------3--3--3--3--3--3--3--3---------------------------------------------]
E]------------------------------------------5--5--5--5--1--1--1--1---------------------]


E]-------------------------------------------------------------------------------------]
B]-------------------------------------------------------------------------------------]
G]-------------------------------------------------------------------------------------]
D]-------------------------------------------------------------------------------------]
A]----------7---------------------5----------------------3-----------------------------]
E]---5-------------5---3-----------------3----1----------------------------------------]

CHORUS:

E]-------------------------------------------------------------------------------------]
B]-------------------------------------------------------------------------------------]
G]---5---5--5--5--5--5--5---5---5--5--5--5--5--5--7---7--7--7--7--7--7-----------------]
D]---X---X--X--X--X--X--X---X---X--X--X--X--X--X--X---X--X--X--X--X--X-----------------]
A]---3---3--3--3--3--3--3---3---3--3--3--3--3--3--5---5--5--5--5--5--5-----------------]
E]-------------------------------------------------------------------------------------]


E]-------------------------------------------------------------------------------------]
B]-------------------------------------------------------------------------------------]
G]---5----5--5--5--5--5--5---5-----5--5--5--5--5--5---5----5--5--5--5--5--5------------]
D]---X----X--X--X--X--X--X---X-----X--X--X--X--X--X---X----X--X--X--X--X--X------------]
A]---3----3--3--3--3--3--3---3-----3--3--3--3--3--3---3----3--3--3--3--3--3------------]
E]-------------------------------------------------------------------------------------]


E]-------------------------------------------------------------------------------------]
B]-------------------------------------------------------------------------------------]
G]---5----5--5--5--5--5--5---5-----5--5--5--5--5--5---5--------------------------------]
D]---X----X--X--X--X--X--X---X-----X--X--X--X--X--X---X--------------------------------]
A]---3----3--3--3--3--3--3---3-----3--3--3--3--3--3---3--------------------------------]
E]-------------------------------------------------------------------------------------]

INTERLUDE:

E]-------------------------------------------------------------------------------------]
B]-------------------------------------------------------------------------------------]
G]-------------------------------------------------------------------------------------]
D]---5---5--5--5--5--5--5--5--5--5--5--5--5--5--5--5--5--5--5--5--5--5--5--5--5--5--5--]
A]---5---5--5--5--5--5--5--5--5--5--5--5--5--5--5--5--5--5--5--5--5--5--5--5--5--5--5--]
E]-------------------------------------------------------------------------------------]


E]-------------------------------------------------------------------------------------]
B]-------------------------------------------------------------------------------------]
G]-------------------------------------------------------------------------------------]
D]---5--5--5--5--5---5---5--5--5--5--5--5--5--5--5--5--5--5--5--5--5--5--5--5--5--5--5-]
A]---5--5--5--5--5---5---5--5--5--5--5--5--5--5--5--5--5--5--5--5--5--5--5--5--5--5--5-]
E]-------------------------------------------------------------------------------------]


Thats it! u'll have to listen to the cd to get when u play each part and when u palm mute but other than that it should be 100% correct! if u dont like my tab... TOO BAD!


Related for Anthem Part Ii tab