Song name
# A B C D E F G H I J K L M N O P Q R S T U V W X Y Z

Blink 182 - Action tab

Intro: 
E|------------------| 
B|------------------| 
D|-9999-9999/13-----| 
G|-xxxx-xxxx-x------| 
A|-7777-7777/11-----| 
E|------------------|


E|--------------------------------|
B|--------------------------------|
D|--------------------------------|
G|----9-----6-----9-------6-------|
A|-7-----9-----7-----9-9-----9--7-|
E|--------------------------------|


Buildup to verse: 
E|------------------| 
B|------------------| 
D|-9-11-13-14-------| 
G|-x-x--x--x--------| 
A|-7-9--11-12-------| 
E|------------------| 

Verse: 
E|------------------| 
B|------------------| 
D|-9999-9999/13-----| 
G|-xxxx-xxxx-x------| 
A|-7777-7777/11-----| 
E|------------------| 

Buildup to chorus: 
E|------------------| 
B|------------------| 
D|---4-6-2----------| 
G|-2-4-6-2----------| 
A|-2-2-4-0----------| 
E|-0----------------| 
PM . . . . 

Chorus: 
E|------------------| 
B|------------------| 
D|---4-6-2----------| 
G|-2-4-6-2----------| 
A|-2-2-4-0----------| 
E|-0----------------|
Tap to rate this tab
# A B C D E F G H I J K L M N O P Q R S T U V W X Y Z