Song name
# A B C D E F G H I J K L M N O P Q R S T U V W X Y Z

Blink 182 - Feeling This tab

Blink 182 - Feeling This

By Jos? Jes?s Eddy Silva Guajardo: rayadodecorazon1@hotmail.com
                                   darkwarrior_182@hotmail.com




Intro (Guitar flanger and drums)                         Key: \ = slide down
                                                             pm = palm mute
Intro pt.2/Verse
e|--------------------------------|
B|--------------------------------|
G|11/-9-9-9-9-9-9-9-9-9-0-13\9----|
D|-x/-x-x-x-x-x-x-x-x-x-0--x\x----|   x6
A|-9/-7-7-7-7-7-7-7-7-7-0-11\7----|
E|--------------------------------|
                               
Chorus
e|----------------------|
B|----------------------|
G|----------------------|
D|-2------------2-------|
A|-2------------2-------|
E|-0------------0-------| 
   
Break 
e|--------------------------------------------|
B|--------------------------------------------|
G|-9-9-9-9-9-9-9-9-11-11-11-11-11-11-11-11-11-|
D|-x-x-x-x-x-x-x-x-x-x-x-x-x-x-x-x-x-x-x-x-x--|
A|-7-7-7-7-7-7-7-7-9--9--9--9--9--9--9--9--9--|
E|--------------------------------------------|

e|-------------------------------------------------|
B|-------------------------------------------------|
G|-13-13-13-13-13-13-13-13-14-14-14-14-14-14-14-14-|
D|-x--x--x--x--x--x--x--x--x--x--x--x--x--x--x--x--|
A|-11-11-11-11-11-11-11-11-12-12-12-12-12-12-12-12-| 
E|-------------------------------------------------|

Verse
e|--------------------------------|
B|--------------------------------|
G|11/-9-9-9-9-9-9-9-9-9-0-13\9----|
D|-x/-x-x-x-x-x-x-x-x-x-0--x\x----|   x6
A|-9/-7-7-7-7-7-7-7-7-7-0-11\7----|
E|--------------------------------|
                               
Chorus
e|----------------------|
B|----------------------|
G|----------------------|
D|-2------------2-------|
A|-2------------2-------|
E|-0------------0-------| 

Bridge (drums)

Bridge pt.2 (bass n drums)

Bridge pt.3
e|-----------------------------------------------------------------|
B|-----------------------------------------------------------------|
G|-9-9-9-9-9-9-9-9-9-9-9-9-9-9-9-9-9-9-9-9-9-9-9-9-9-9-9-9-9-9-9-9-|
D|-9-9-9-9-9-9-9-9-9-9-9-9-9-9-9-9-9-9-9-9-9-9-9-9-9-9-9-9-9-9-9-9-|
A|-7-7-7-7-7-7-7-7-x-x-x-x-x-x-x-x-x-x-x-x-x-x-x-x-0-0-0-0-0-0-0-0-|   x2
E|-----------------7-7-7-7-7-7-7-7-9-9-9-9-9-9-9-9-----------------|
 pm................................................................


Outro
e|-------------------------------------------------------------------------|
B|-------------------------------------------------------------------------|
G|-9-9-9-9-9-9-9-9---------------------------------------------------------|
D|-9-9-9-9-9-9-9-9-9-9-9-9-9-9-9-9-11-11-11-11-11-11-11-11-7-7-7-7-7-7-7-7-|
A|-7-7-7-7-7-7-7-7-9-9-9-9-9-9-9-9-11-11-11-11-11-11-11-11-7-7-7-7-7-7-7-7-| 
E|-----------------7-7-7-7-7-7-7-7-9--9--9--9--9--9--9--9--5-5-5-5-5-5-5-5-|
x8
Tap to rate this tab
# A B C D E F G H I J K L M N O P Q R S T U V W X Y Z