Song name
# A B C D E F G H I J K L M N O P Q R S T U V W X Y Z

Blink 182 - Kaleidoscope tab

-------------------------------------------------------------------------------
			     Kaleidoscope - Blink 182
-------------------------------------------------------------------------------
Tabbed by:bdkmrv
Email:budokai_marvin@yahoo.com
This is really easy to play and I'm pretty sure it's accurate. 
Probably about 90%. :P
Remember, this is only the intro of the song,
however, it is also the verses of the song as well.
I still need to figure out what's left.




Tuning: Standard

e|---------------------------------------------------------------------------|
B|-----4---2---4---2---------------------------------------------------------|
G|-----x---2---x---2---------------------------------------------------------|
D|-----2---0---2---0-----5-55555---------------------------------------------|
A|-----------------------5-55555---------------------------------------------|
E|-----------------------3-33333---------------------------------------------|


************************************

| /   slide up
| \   slide down
| h   hammer-on
| p   pull-off
| ~   vibrato
| +   harmonic
| x   Mute note
| b   Bend
| pb  Pre-bend
| br  Bend release
| pbr Pre-bend release
| brb Bend release bend

************************************
Tap to rate this tab
 
# A B C D E F G H I J K L M N O P Q R S T U V W X Y Z