Song name
# A B C D E F G H I J K L M N O P Q R S T U V W X Y Z

Bliss 66 - Sooner Or Later tab

			     SONG NAME - Sooner or Later
----------------------------------------------------------------------------
Tabbed by: Drunkin
Email:jdrockstar1@yahoo.com

Tuning:  Standard
_______________________________________________________________________________

 INTRO/VERSE:

e|----------------------------------------------------|
B|----------------------------------------------------|
G|----------------------------------------------2-----|  (repeat as needed)
D|-4h5--5-5---5-5--2-2--2h4-----4h5--5-5---5-5--2--4--|
A|-2----2-2---2-2--2-2--2-------2----2-2---2-2-----2--|
E|----------------------------------------------------|


 PRE-CHORUS:



e|-----------------------------------------------------|
B|-----------------------------------------------------|
G|--9--9--9--9---5--5--5--5---9--9--9--9---5--5--5--5--|
D|--9--9--9--9---5--5--5--5---9--9--9--9---5--5--5--5--|
A|--7--7--7--7---3--3--3--3---7--7--7--7---3--3--3--3--|
E|-----------------------------------------------------|



e|----------------------------------------------------|
B|----------------------------------------------------|
G|--9--9--9--9---5--5--5--5---2--2--2--2--2--2--2--2--|
D|--9--9--9--9---5--5--5--5---2--2--2--2--2--2--2--2--|
A|--7--7--7--7---3--3--3--3---0--0--0--0--0--0--0--0--|
E|----------------------------------------------------|


 CHORUS:


e|-----------------------------------------|
B|-----------------------------------------|
G|----------2------6------7----------------|
D|--2-------2------6------7------7------4--|   (repeat)
A|--2-------0------4------5------7------4--|
E|--0----------------------------5------2--|


 BRIDGE:


e|--------------------------------|
B|--------------------------------|
G|--6--------4--------2--------4--|    
D|--6--------4--------2--------4--|   (repeat)
A|--4--------2--------0--------2--|
E|--------------------------------|
Tap to rate this tab
 
# A B C D E F G H I J K L M N O P Q R S T U V W X Y Z