Song name
# A B C D E F G H I J K L M N O P Q R S T U V W X Y Z

Blitz - Fatigue tab

Intro (Piano part)

E-12-12-12-12-|-10-10-10-10-|-5-5-5-5-5-5-5-5-5-| 
B-12-12-12-12-|-10-10-10-10-|-5-5-5-5-5-5-5-5-5-|  
G-------------|-------------|-------------------|  
D-------------|-------------|-------------------|
A-------------|-------------|-------------------|
E-------------|-------------|-------------------| (play each bar 4 times)

Verse/Main Riff
E---------|---------|-----------------|
B---------|---------|-----------------|
G-9-9-9-9-|-7-7-7-7-|-----------------|        
D-9-9-9-9-|-7-7-7-7-|-7-7-7-7-7-7-7-7-|
A-7-7-7-7-|-5-5-5-5-|-7-7-7-7-7-7-7-7-|
E---------|---------|-5-5-5-5-5-5-5-5-|   (play each bar 4 times)

Bridge "I've got No Fatgue"
E------------------------------------|
B------------------------------------|
G-----------7------------------------|
D--5--------7--------7-7-7-7-7-7-7-7-|
A--5--------5--------7-7-7-7-7-7-7-7-|
E--3-----------------5-5-5-5-5-5-5-5-|

That's all folks
Tap to rate this tab
 
# A B C D E F G H I J K L M N O P Q R S T U V W X Y Z