Song name
# A B C D E F G H I J K L M N O P Q R S T U V W X Y Z

Bloc Party - We Were Lovers tab

Bloc Party - We Were Lovers


Intro & Verse:


E|-------------|
B|-13-20-13-12-|
G|-------------|
D|-------------|
A|-------------|
E|-------------|


Refrain:

E|-------------|
B|-------------|
G|--5-9-10-12--|
D|--x-x--x--x--|
A|--3-7--8-10--|
E|-------------|

Verse 2:
(same as above but with an extra riff, not sure but might be something like this:)

E|-----------|
B|-----------|
G|--5-12-5-4-|
D|--x--x-x-x-|
A|--3-10-3-2-|
E|-----------|

Solo:
(Tremolo Picking)

E|-20-19-17-15-17-12-13-20-19-17-15-17-12-13-12-13-12-10-8-10-12-10-13-12-15-13-17-19-20-|


i think there are two riffs in the verse but they are the same. one is played with
picking and is not played through the whole song, the other is played with a keyboard. use
effects (heavy distortion and delay) to get a similar sound. i'm sure that the solo and 
is right, the verse and intro is maybe played with a keyboard, just try and have fun ;)
Tap to rate this tab
# A B C D E F G H I J K L M N O P Q R S T U V W X Y Z