Song name
# A B C D E F G H I J K L M N O P Q R S T U V W X Y Z

Bloc Party - Trojan Horse tab

Help us improve GuitareTab! Take a short survey!
-------------------------------------------------------------------------------
			     Trojan Horse - Bloc Party
-------------------------------------------------------------------------------
Tabbed by: Alex Song
Email: HiHowAreYou16@yahoo.com

Tuning: Standard

This is the tab for what I presume is Russel's part of Trojan Horse, a song off of the
Bloc Party album entitled Intimacy.

0:00-1:21

Russel uses some crazy distortion and/or overdrive here. I'm not quite sure what it is.
tremolo picking.

e|---------------------------------------------------------------------------|
B|---------------------------------------------------------------------------|
G|---------------------------------------------------------------------------|
D|-3-6------------3----------------------------------------------------------|
A|-----4-6-(3x)--3-4-6-------------------------------------------------------|
E|---------------------------------------------------------------------------|


1:22-1:33

e|-----6-8-4-3-----11-8-6-8------6-8-4-3-----11-8-11-13----------------------|
B|---4-----------9-------------4-----------9---------------------------------|
G|-5-----------6-------------5-----------6-----------------------------------|
D|---------------------------------------------------------------------------|
A|---------------------------------------------------------------------------|
E|---------------------------------------------------------------------------|

1:34-2:19

It's the same as the beginning riff.

e|---------------------------------------------------------------------------|
B|---------------------------------------------------------------------------|
G|---------------------------------------------------------------------------|
D|-3-6------------3----------------------------------------------------------|
A|-----4-6-(3x)--3-4-6-------------------------------------------------------|
E|---------------------------------------------------------------------------|

2:20- 2:44

The epic solo of this song.

e|---------------------------------------------------------------------------|
B|------------------------------9-8------------------------------------------|
G|-------------------------8-10-----8----8-----------------------------------|
D|-------------6-8-10-8-10------------10---10-8-6-5-6-8-10-------------------|
A|-8-8-8-8-6-8---------------------------------------------------------------|
E|---------------------------------------------------------------------------|


e|--------------------------------------8-11-8--------------7----------------|
B|--------------------------------9-8----------11-9----9-11------------------|
G|---------------------------8-10-----8-------------10-----------------------|
D|-6-------------6-8-10-8-10-------------------------------------------------|
A|---8-8-8-6-8---------------------------------------------------------------|
E|---------------------------------------------------------------------------|


e|---------------------------------------------------------------------------|
B|---------------------------------------------------------------------------|
G|---------------------------------5-------5-------6-5---5-8-10--------------|
D|-6-------6-------8-6---6-8-6---6---8-6-8---8-6-8-----8---------(2x)--------|
A|---8-6-8---8-6-8-----8-------8---------------------------------------------|
E|---------------------------------------------------------------------------|

2:45-3:06

Tremolo picking again.

e|-----9-11-8-9-11-8---------------------------------------------------------|
B|-6-9-----------------------------------------------------------------------|
G|---------------------------------------------------------------------------|
D|---------------------------------------------------------------------------|
A|---------------------------------------------------------------------------|
E|---------------------------------------------------------------------------|

3:07-3:30

Finish the song with the solo once more.


I appreciate all comments, concerns, critiques, and questions. You can contact me
at hihowareyou16@yahoo.com

==============================================================================
Related for Trojan Horse tab