Song name
# A B C D E F G H I J K L M N O P Q R S T U V W X Y Z

Bloc Party - Mean tab

tabbed by Adam Carrington (Glasgow)


Kele's guitar:

opening chord

e--0---
b--3--
g--0--
d--2--
a-----
e-----


Verse chords (these are just the chords, listen for the strumming pattern)

first riff

e------------------|
b------------------|
g--9---12----------|
d--9---12---12-----|
a--7---10---12-----|
e------------10----|

second riff

e------------------|
b------------------|
g--5-------7-------|
d--5---5---7-------|
a--3---5---5-------|
e------3-----------|



Chorus chords

e------------------------|
b------------------------|
g------------------------|
d--2---2---0---7---9-----|
a--2---0---2---7---9-----|
e--0---2---3---5---7-----|


Last chord:

e------|
b------|
g--9---|
d--9---|
a--7---|
e------|


Russell's guitar:

Opening chord:

e--------|
b--5-----|
g--7-----|
d--5-----|
a--7-----|
e--------|

Pre-Verse riff (^ means bend the note up 1 step, v means vibrato)

e------14-------------------|
b--12-----14^v--------------|
g---------------------------|
d---------------------------|
a---------------------------|
e------------------
                        
                    
Tap to rate this tab
# A B C D E F G H I J K L M N O P Q R S T U V W X Y Z