Song name
# A B C D E F G H I J K L M N O P Q R S T U V W X Y Z

Bloc Party - Truth tab

Intro to "Truth" by Bloc Party from their album FOUR.

Use standard tuning.
Use some kind of reverb/delay pedal.

Tempo: 145 or so..

x = Muted/Don't hit
o = Open
- = 1 beat

Part 1:
e|x--- x--- x--- x----------------------------------------------------------|
B|x--- x--- x--- x----------------------------------------------------------|
G|9--- 11---12---14---------------------------------------------------------|
D|10---12---14---14---------------------------------------------------------|
A|x--- x--- x--- x----------------------------------------------------------|
E|x--- x--- x--- x----------------------------------------------------------|
--Repeat the section above 4 times, then proceed below.

Part 2:
e|x- x- x- x- x- x- x- x- x--- x--- x--- x----------------------------------|
B|x- x- x- x- x- x- x- x- x--- x--- x--- x----------------------------------|
G|9- 16-17-16-19-16-14-16-9--- 16---9--- 16---------------------------------|
D|10-17-17-17-17-17-16-17-10---17---10---17---------------------------------|
A|x- x- x- x- x- x- x- x- x--- x--- x--- x----------------------------------|
E|x- x- x- x- x- x- x- x- x--- x--- x--- x----------------------------------|
--Repeat the section above 2 times.

This is all i could figure out, sadly :(
But I hope this was somewhat helpful!

-iiIsh
Tap to rate this tab
# A B C D E F G H I J K L M N O P Q R S T U V W X Y Z