Song name
# A B C D E F G H I J K L M N O P Q R S T U V W X Y Z

Bloc Party - Kreuzberg tab

-----------------------------------------------------------------------------
			     Kreuzberg - Bloc Party
-----------------------------------------------------------------------------

Tabbed by: dcfc_rules
Email: scully_rick@hotmail.com

Tuning: STANDARD

Hey, first of all this isn't exactly how they play it live, and i'm pretty sure there is two
guitars for the verse and intro. Anyhow, this is an correct/easy way to play the verse
with one guitar, and the rest of the song using two.

**19/4/08 - corrected last line of chorus... thanks switch_19**

INTRO:

Guitar 1

e|-3-------3-------3-------3--------3-------3-------3-------3---------------|
B|-----1-------1-------1-------1--------1-------1-------1-------1-----------|
G|---2---2---2---2---2---2---2---2----2---2---2---2---2---2---2---2---------|
D|--------------------------------------------------------------------------|
A|--------------------------------------------------------------------------|
E|--------------------------------------------------------------------------|

VERSE:

Guitar 1

e|-3-------3--------3-------3--------3-------3----------------0-------------|
B|-----1-------1--------1-------1--------1-------1----3---------------------|
G|---2---2---2---2---------------------2---2---2---2------0-------0---------|
D|--------------------3---3---3---3---------------------2---2---2---2-------|
A|--------------------------------------------------------------------------|
E|--------------------------------------------------------------------------|

e|-3-------3-------3-------3--------3-------3-------3-------3---------------|
B|-----1-------1-------0-------0--------1-------1-------0-------0-----------|
G|---2---2---2---2--------------------2---2---2---2-------------------------|
D|-------------------3---3---3---3--------------------3---3---3---3---------|
A|--------------------------------------------------------------------------|
E|--------------------------------------------------------------------------|

CHORUS:

Guitar 1

e|-12-------------------------------------|
B|----13----12-------13-------------------|
G|-------------12-------12--10-9----------|
D|-------------------------------10-------|
A|----------------------------------------|
E|----------------------------------------|

e|-12-------------------------------------|
B|----13----12-------13-------------------|
G|-------------12-------12--10-9-10-9-----|
D|------------------------------------10--|
A|----------------------------------------|
E|----------------------------------------|

e|-12-------------------------------------|
B|----13----12-------13-------------------|
G|-------------12-------12--10-9----------|
D|-------------------------------10-------|
A|----------------------------------------|
E|----------------------------------------|


e|-12-----13-12-----13-12----13-12--------|
B|----13--------13--------13-------13-----|
G|----------------------------------------|
D|----------------------------------------|
A|----------------------------------------|
E|----------------------------------------|


GUITAR 2

e|----------|-------------------------------------------------------|
B|----------|-------------------------------------------------------|
G|-12121212-|-1010101010101010---------------------------77777777---|  x4
D|-12121212-|-1010101010101010-1010101010101010-77777777-77777777---|
A|-10101010-|-8-8-8-8-8-8-8-8--1010101010101010-77777777-55555555---|
E|----------|------------------8-8-8-8-8-8-8-8--55555555------------|

 ^^^^those are 10s not 1 and 0s

BRIDGE:

Guitar 1

e|-13-12-----13-12------|
B|-------13--------15---|
G|----------------------|
D|----------------------|
A|----------------------|
E|----------------------|

Guitar 2

e|--------------------------------------------------------------------------|
B|--------------------------------------------------------------------------|
G|-10101010101010101010101010101010-----------------------------------------|
D|-10101010101010101010101010101010-----------------------------------------|
A|-8-8-8-8-8-8-8-8-8-8-8-8-8-8-8-8------------------------------------------|
E|--------------------------------------------------------------------------|

e|--------------------------------------------------------------------------|
B|--------------------------------------------------------------------------|
G|-12-12-12-12-12-12-12-12-12-12-12-12-12-12-12-12--------------------------|
D|-12-12-12-12-12-12-12-12-12-12-12-12-12-12-12-12--------------------------|
A|-10-10-10-10-10-10-10-10-10-10-10-10-10-10-10-10--------------------------|
E|--------------------------------------------------------------------------|

e|--------------------------------------------------------------------------|
B|--------------------------------------------------------------------------|
G|-101010\7-7-7-/9-9-9-\5-5-5-/7-7/9-9/12-12-12-12-12-12-12-12-12-----------|
D|-101010\7-7-7-/9-9-9-\5-5-5-/7-7/9-9/12-12-12-12-12-12-12-12-12-----------|
A|-8-8-8-\5-5-5-/7-7-7-\3-3-3-/5-5/7-7/10-10-10-10-10-10-10-10-10-----------|
E|--------------------------------------------------------------------------|

                                                  -------------------------|
                                                  -------------------------|
                                                  -12-12-12-12-12-12-12-12-|
                                                  -12-12-12-12-12-12-12-12-|
                                                  -10-10-10-10-10-10-10-10-|
                                                  -------------------------|

e|--------------------------------------------------------------------------|
B|--------------------------------------------------------------------------|
G|-101010\7-7-7-/9-9-9-\5-5-5-/7-7/9-9/12-12-12-12-12-12-12-12-12-----------|
D|-101010\7-7-7-/9-9-9-\5-5-5-/7-7/9-9/12-12-12-12-12-12-12-12-12-----------|
A|-8-8-8-\5-5-5-/7-7-7-\3-3-3-/5-5/7-7/10-10-10-10-10-10-10-10-10-----------|
E|--------------------------------------------------------------------------|

                                                  ---------------------------
                                                  ---------------------------
                                                  -12-12-12-12-12-12-12-12---
                                                  -12-12-12-12-12-12-12-12---
                                                  -10-10-10-10-10-10-10-10---
                                                  ---------------------------

OUTRO: two layers of guitar one here - one playing the riff from the chorus and one playing this:

Guitar 1

e|-------12-12--------------------------------|
B|-15-15-------------------13-13-15-15--------|
G|-------------14-14-------------------12-12--|
D|--------------------------------------------|
A|--------------------------------------------|
E|--------------------------------------------|

Guitar 2:

SAME AS CHORUS

e|----------|-------------------------------------------------------|
B|----------|-------------------------------------------------------|
G|-12121212-|-1010101010101010---------------------------77777777---|
D|-12121212-|-1010101010101010-1010101010101010-77777777-77777777---| x8
A|-10101010-|-8-8-8-8-8-8-8-8--1010101010101010-77777777-55555555---|
E|----------|------------------8-8-8-8-8-8-8-8--55555555------------|


......................................................................


Song structure:

Intro
Verse
Chorus
Verse
Chorus
Bridge
Verse (not really but the guitar is the same as verse)
Outro

......................................................................

Hope this isn't too hard to understand. tell me if you have any problems but i'm pretty sure
that this is right.  please comment!

enjoy!
Tap to rate this tab
# A B C D E F G H I J K L M N O P Q R S T U V W X Y Z