Song name
# A B C D E F G H I J K L M N O P Q R S T U V W X Y Z

Blonde Redhead - For The Damaged tab

-------------------------------------------------------------------------------
			     FOR THE DAMAGED CODA - Blonde Redhead
-------------------------------------------------------------------------------
Tabbed by: Gustavo Collado

Tuning: EADGBe

[Piano arranged for guitar]

e|---------------------------------|
B|---------------------------------|
G|---3---3---3---3---3---3---3---3-|
D|-----5-------5-------5-------5---|
A|-4-------4-------4-------4-------|
E|---------------------------------|

e|--------------------------------------|
B|--------------------------------------|
G|---1---1---1---1---1---1---1----1---1-|
D|-----3-------3-------3-------3----3---|
A|-3-------3-------3-------3---3h2------|
E|--------------------------------------|

e|---------------------------|
B|---------------------------|
G|---1---1---4---4---4---4-5-|
D|-----3-------6-------6---5-|
A|-2-------2-------2-------3-|
E|---------------------------|

e|----------------------------------------------------------------------|
B|----------------------------------------------------------------------|
G|---5----3----3----1----1-------------5---5---5---5---3---3---3--------|
D|-----5--3------3--3------3-5-3-5-0-----5-------5-------3-------0-3-5r-|
A|-3-----(4)-4-----(3)-3-----5-------6-------6-------5-------5----------|
E|----------------------------------------------------------------------|

e|-----3--------3--------3------3---|
B|-------4--------4------4--------4-|
G|----------------------------------|X2
D|---------(0r)-----(1r)---(0r)-----|
A|-(3r)-----------------------------|
E|----------------------------------|

e|-3-3-3-3-3-----------|
B|-4-4-4-4-4-4h3h1h3h1-|
G|---------------------|
D|---------------------|
A|---------------------|
E|---------------------|
 
e|------3------3------3------3-|
B|------4------4------4------4-|
G|-----------------------------|X2
D|--------(0r)---(1r)---(0r)---|
A|-(3r)------------------------|
E|-----------------------------|

e|-3-3-3-3-3-----------|
B|-4-4-4-4-4-4h3h1h3h1-|
G|---------------------|
D|---------------------|
A|---------------------|
E|---------------------|

e|-----------------|
B|---------6-6-8---|
G|-5-5-7-7-------8-|X16
D|-----------------|
A|-----------------|
E|-----------------|

e|----|
B|----|
G|-5r-|
D|----|
A|----|
E|----|
Tap to rate this tab
# A B C D E F G H I J K L M N O P Q R S T U V W X Y Z