Song name
# A B C D E F G H I J K L M N O P Q R S T U V W X Y Z

Blood Addiction - The Night tab

E|------------------------------|
B|------------------------------|
G|------------------------------|
D|------------------------------|
A|------------------------------|
D|-------000000555557777733333--| x2



E|-------------------|
B|-------------------|
G|-------------------|
D|-333355555777777---|
A|-333355555777777---|
D|-333355555777777---|




E|--------------------------------------------------------------|
B|--------------------------------------------------------------|
G|---------55555-------55555-101010101010-----------------------|
D|---33333-55555-55555-55555-101010101010-----------------------|
A|---33333-33333-55555-33333-8-8-8-8-8-8------------------------|
D|---33333-------55555------------------------------------------|


&

E|--------------------------------------------------------------|
B|--------------------------------------------------------------|
G|---------55555-------77777-101010101010-----------------------|
D|---33333-55555-55555-77777-101010101010-----------------------|
A|---33333-33333-55555-55555-8-8-8-8-8-8------------------------|
D|---33333-------55555------------------------------------------|


x2




E|---------------------------------------------------|
B|-------0-------0-------0------0-----0--------------|
G|-----0---0---0---0---0---0--0---0--0--0----=-------|
D|---2-------2-------5-------5------7----------------|
A|--3-------3-------3-------3------5-----------------|x4
D|--0-------0-------0-------0------0-----------------|




E|--------------------------------------------------------------|
B|--------------------------------------------------------------|
G|---------55555-------55555-101010101010-----------------------|
D|---33333-55555-55555-55555-101010101010-----------------------|
A|---33333-33333-55555-33333-8-8-8-8-8-8------------------------|
D|---33333-------55555------------------------------------------|


&

E|--------------------------------------------------------------|
B|--------------------------------------------------------------|
G|---------55555-------77777-101010101010-----------------------|
D|---33333-55555-55555-77777-101010101010-----------------------|
A|---33333-33333-55555-55555-8-8-8-8-8-8------------------------|
D|---33333-------55555------------------------------------------|


x2






E|---------------------------------------------------|
B|-------0-------0-------0------0-----0--------------|
G|-----0---0---0---0---0---0--0---0--0--0----=-------|
D|---2-------2-------5-------5------7----------------|
A|--3-------3-------3-------3------5-----------------|x1
D|--0-------0-------0-------0------0-----------------|





E|------------------------------|
B|------------------------------|
G|------------------------------|
D|--0-----0-2-0----2-3----------|
A|--0-----0-2-0----2-3----------|
D|--0-xxxx0-2-0-xx 2=3----------|x10



E|--------------------------------------------------------------|
B|--------------------------------------------------------------|
G|---------55555-------55555-101010101010-----------------------|
D|---33333-55555-55555-55555-101010101010-----------------------|
A|---33333-33333-55555-33333-8-8-8-8-8-8------------------------|
D|---33333-------55555------------------------------------------|


&

E|--------------------------------------------------------------|
B|--------------------------------------------------------------|
G|---------55555-------77777-101010101010-----------------------|
D|---33333-55555-55555-77777-101010101010-----------------------|
A|---33333-33333-55555-55555-8-8-8-8-8-8------------------------|
D|---33333-------55555------------------------------------------|


x2
Tap to rate this tab
 
# A B C D E F G H I J K L M N O P Q R S T U V W X Y Z