Guitaretab - guitar tabs
Song name
# A B C D E F G H I J K L M N O P Q R S T U V W X Y Z

Blood Axis - Seeker tab

                                     SEEKER
                            As recorded by Blood Axis
                 (From the 1997 Album BLOT: SACRIFICE IN SWEDEN)
                          

                    WEB ADDRESS: http://welcome.to/bloodaxis


* Transcribed by Corey Hunter: 20th Dec. 2007

* This song does not have a Chorus but rather a series of Verses
  that repeat one after the other until the end. There is also an
  intro part which acts as a bridge between Verses too.

 Intro
  Neo-Folk Ballad Q=67
 4/4
  Gtr I
  E E S S S S S S S S +S  s s s   S S S S S S E S S S S +S  S E
|-------------3p0---------------|-------------------------------|
|---1-0h1---------1-------1-----|-----0h1-------3p1---------1---|
|---------2---------------------|---------0---------0---------0-|
|-----------2-------2-(2)-------|---2---------2-------2-(2)-----|
|-0-------------------------0-2-|-3---------3-------------------|
|-------------------------------|-------------------------------|


  E E S S S S S S S S +S  s s s   S S S  S  E S S Q    Q
|-------------3p0---------------|--------------------------||
|---1-0h1---------1-------1-----|-----1-(1)---3------------||
|---------2---------------------|--------0------0----<12>--||
|-----------2-------2-(2)-------|---2----------------------||
|-0-------------------------0-2-|-3---------2-----0--------||
|-------------------------------|--------------------------||

[ Tab from: http://www.guitaretab.com/b/blood-axis/162762.html ]
 Verse
  E S S S S S S S S S S S S S S   S S S S S S S S S S S S S S S S
|-----0-------------------------|-----------------------0---------|
|---1-------1-------1-------1---|-1---0-------3-------1-----1---1-|
|---------2---0-------0-------0-|-------0-0-----0-----------------|
|-------2---------2-------2-----|---2-------0-------2-----2-------|
|-0-------------3-------0-------|-3-------2-------0-----------0---|
|-------------------------------|---------------------------------|


  S S S S S S S S S S S S S S S S   E S S S S S S S S S S S S S S
|---------------------------------|-------------------------------|
|-----1-------1-------1-------1---|---1-------3-------1-----1---1-|
|-------0---0---0-------2-------0-|-----0---0---0-------2---------|
|---2---------------2-------2-----|-----------------2-----2---2---|
|-3-------3-------0-------0-------|-3-----2-------0---------------|
|---------------------------------|-------------------------------|


  S S S S S S S S S S S S E S S   S S S S E S S S S E S S S S
|-------0-----------------------|-----------------------------|
|-----1-----1---1-1---1-----1---|-----1-----3-------1---1---1-|
|---2-------------------------0-|-------0-----0-----------2---|
|---------2---------2---2-------|---2-------------2---2-------|
|-0-----------0---3-------0-----|-3-------2-----0-------------|
|-------------------------------|-----------------------------|


  S S S S S S S S S S S S S S S S   S S S S S S S S S S S S S S S S
|---------------------------------|---------------------------------||
|-----1-------1-------1-----1---1-|-----1-------3-0-----1p0h1---1---||
|---0---0-------0-------2-----2---|-------0---0-------------------2-||
|-----------2-------2-----2-------|---2---------------2-------2-----||
|-3-------3-------0---------------|-3-------2-------0---------------||
|---------------------------------|---------------------------------||



***************************************************************************************
* Generated using Power Tab Editor by Brad Larsen - http://powertab.guitarnetwork.org *
***************************************************************************************
Seeker chords by Blood Axis