Song name
# A B C D E F G H I J K L M N O P Q R S T U V W X Y Z

Bloodbound - Black Heart tab

Black Heart(intro)


Awesome ballad by Bloobound..... please rate it's my first tab :P

h: hammer-on
b: bend
p: pull-off
r: release bend

Guitar 1:

e|--------2------|--------3------|------2-3h2----|--------0------|
B|------3---3----|----------3----|----3-------3--|------2---2----|
G|----4-------4--|------0-----0--|--2-----------2|----2-------2--|
D|--4-----------4|----0---------0|0--------------|--2-----------2|
A|2--------------|--2------------|---------------|0--------------|
E|---------------|3--------------|---------------|---------------|

e|--------2------|--------3------|------2-3h2----|---------------|
B|------3---3----|----------3----|----3-------3--|---------------|
G|----4-------4--|------0-----0--|--2-----------2|---------------|
D|--4-----------4|----0---------0|0--------------|---------------|
A|2--------------|--2------------|---------------|0--------------|
E|---------------|3--------------|---------------|---------------|



guitar 2:

e|---------------|---------------|---------------|---------------|
B|---------------|---------------|---------------|---------------|
G|4--------------|---------------|7--------------|---------------|
D|4--------------|5--------------|7--------------|7--------------|
A|2--------------|5--------------|5--------------|7--------------|
E|---------------|3--------------|---------------|5--------------|

guitar 3:

e|12b(14)---15----12b(14)r12------------12--14--15-12|
B|-----------------------------15---15---------------|
G|---------------------------------------------------|
D|---------------------------------------------------|
A|---------------------------------------------------|
E|---------------------------------------------------|


e|12b(14)---15----15b(17)r15---14---17--17--17--19-17|
B|---------------------------------------------------|
G|---------------------------------------------------|
D|---------------------------------------------------|
A|---------------------------------------------------|
E|---------------------------------------------------|



hope it was usefull XD
i'm figuring out the rest of the song, i'll update the tab as soon as i can.

greetings from Colombia
Keep it metal \m/

Tap to rate this tab
 
# A B C D E F G H I J K L M N O P Q R S T U V W X Y Z