Song name
# A B C D E F G H I J K L M N O P Q R S T U V W X Y Z

Bloodbound - The Ones We Left Behind tab

-------------------------------------------------------------------------------
                             The Ones We Left Behind - Bloodbound
-------------------------------------------------------------------------------
Tabbed by: Me (DreamEvilSE)
E-mail: SergioRP8@hotmail.es

Tuning: Standard
                      
                     
e|-------------------------------------0---------------------------------------|
B|------------0------0-----------3-------3----3--------------------------------|
G|--------------0---------------------------0----------------------------------|
D|------2---------2-----------0------------------------------------------------|
A|----2---2--------------------------------------------------------------------|
E|--0-----------------------3-------0------------------------------------------|

e|-----------------------------------------------------------------------------|
B|-------------0------0--------------------------------------------------------|
G|---------------0----------------4----------6---------------------------------|
D|------2----------2------------5----------7-----------------------------------|
A|----2---2-------------------5----------7-------------------------------------|
E|--0-----------------------3----------5---------------------------------------|
Tap to rate this tab
# A B C D E F G H I J K L M N O P Q R S T U V W X Y Z