Song name
# A B C D E F G H I J K L M N O P Q R S T U V W X Y Z

Bloodline - Stone Cold Hearted tab

-------------------------------------------------------------------------------
                             STONE COLD HEARTED - Bloodline
-------------------------------------------------------------------------------


Tabbed by: Isaias Garcia (TexasFury)

Tuning: Half-step down


Rhythm Guitar

Riff #1 - Intro
      S S S S S E  S   E  E  Q       
D#||-------------------------------|
A#||-------------------------------|
F#||-------------------------------|
C#||-------------------------------|
G#||--5-3-----------------3--------|
D#||------5-4-3-1--1-3g5-----3~----|


Riff #2 - verse

  E.  S E  S S S S S S E  S S   
------------------------------|
--6---6-6--x-x-x-6-x-x-6--x-x-|
--5---5-5--x-x-x-5-x-x-5--x-x-|
------------------------------|
--5---5-5--x-x-x-5-x-x-5--x-x-|
------------------------------|


Riff #3 - chorus

  W                   W                   S S E   S S S S Q     Q     
-------------------|-------------------|-----------------------------|
--3----------------|-------------------|--6-6-6\--6-6-6-6-6\---------|
--0----------------|--3----------------|--5-5-5\--5-5-5-5-5\---------|
--0----------------|--3----------------|-----------------------------|
-------------------|--1----------------|--5-5-5\--5-5-5-5-5\---------|
--3----------------|-------------------|-----------------------------|


  S S E   S S S S Q     Q       W                   W                 
-----------------------------|-------------------|-------------------|
--6-6-6\--6-6-6-6-6\---------|--3----------------|-------------------|
--5-5-5\--5-5-5-5-5\---------|--0----------------|--3----------------|
-----------------------------|--0----------------|--3----------------|
--5-5-5\--5-5-5-5-5\---------|-------------------|--1----------------|
-----------------------------|--3----------------|-------------------|


  W                   E  E  E  E  E  E  E  E    
-------------------|--------------------------|
-------------------|--------------------------|
--2----------------|--5--5--5--5--5--5--5--5--|
--2----------------|--5--5--5--5--5--5--5--5--|
--0----------------|--3--3--3--3--3--3--3--3--|
-------------------|--------------------------|


Riff #4 - Guitar Solo

  W                   W                   W                 
-------------------|-------------------|-------------------|
--4----------------|--L----------------|--3----------------|
--5----------------|--L----------------|--3----------------|
--5----------------|--L----------------|--3----------------|
-------------------|-------------------|-------------------|
-------------------|-------------------|-------------------|


  W                   W                   W                   W                 
-------------------|-------------------|-------------------|-------------------|
--L----------------|--1----------------|--L----------------|--4----------------|
--L----------------|--1----------------|--L----------------|--5----------------|
--L----------------|--1----------------|--L----------------|--5----------------|
-------------------|-------------------|-------------------|-------------------|
-------------------|-------------------|-------------------|-------------------|


  W                   W                   W                   W                 
-------------------|-------------------|-------------------|-------------------|
--3----------------|--4----------------|--L----------------|--3----------------|
--3----------------|--5----------------|--L----------------|--3----------------|
--3----------------|--5----------------|--L----------------|--3----------------|
-------------------|-------------------|-------------------|-------------------|
-------------------|-------------------|-------------------|-------------------|


  W                   W                   W                   W                 
-------------------|-------------------|-------------------|-------------------|
--L----------------|--1----------------|--L----------------|--4----------------|
--L----------------|--1----------------|--L----------------|--5----------------|
--L----------------|--1----------------|--L----------------|--5----------------|
-------------------|-------------------|-------------------|-------------------|
-------------------|-------------------|-------------------|-------------------|


  E  E  E  E  Q    Q      
--3--3--3--3--3---------|
--3--3--3--3--3---------|
--0--0--0--0--0---------|
--0--0--0--0--0---------|
------------------------|
------------------------|


Riff #5 - Outro

  S S S S S E  S   E  E  Q       S S S S S E  S   E  E  Q     
------------------------------|------------------------------|
------------------------------|------------------------------|
------------------------------|------------------------------|
------------------------------|------------------------------|
--5-3-----------------3-------|--5-3-----------------3-------|
------5-4-3-1--1-3g5-----3----|------5-4-3-1--1-3g5-----3----|


  S S S S S E  S   E  E  Q       S S S S S E.     W                 
------------------------------|----------------|-------------------|
------------------------------|----------------|--6----------------|
------------------------------|----------------|--5----------------|
------------------------------|----------------|-------------------|
--5-3-----------------3-------|--5-3-----------|--5----------------|
------5-4-3-1--1-3g5-----3----|------5-4-3-1---|-------------------|


  Q     Q    H          
----------------------||
--6\------------------||
--5\------------------||
----------------------||
--5\------------------||
----------------------||



Lead guitar/organ

    m.5                                       
       Q      Q      S  S  S  S   S  S  S  S   
D#||----------------10--------------10--------|
A#||--13b----13b-------10-13-----10----13-----|
F#||-------------------------12b----------12b-|
C#||------------------------------------------|
G#||------------------------------------------|
D#||------------------------------------------|


   S  S    S   S     S  S  E     Q     E   E   
--10------------------------------------------|
------------------------------------------18--|
-----12br--Lb-10-10g12-12-10s~--10\-----------|
----------------------------------------------|
----------------------------------------------|
----------------------------------------------|


               |---3---|                                   
   E    S  S   S   S   S  S   S  S  S  S  S  S   S  S  S   
-------15-----15h-16p-15-----------------15-13p-12--------|
---Lb-----18b------------18s-15-13----15-----------13-----|
-----------------------------------14-----------------12s-|
----------------------------------------------------------|
----------------------------------------------------------|
----------------------------------------------------------|


   S  S  S  S  S  S  S  S  S  S   S  S  E  E       Q     Q    H          
-----------------------------------------------|-----------------------|
-----------------------------------------------|-----------------------|
--10-12----10S-9-------------------------------|-----------------------|
--------12-------10----12----10b---------------|-----------------------|
--------------------10----12-----12-11-10--8b--|-----------------------|
-----------------------------------------------|--10\------------------|


   m.19                                                       
   S   E   S   S  S  S    S   S  S    S   S  S    S   S  S  
-----------------------------------------------------------|
------15------15-15----------15----------15----------15----|
--17b-----17b-------17br--Lb----17br--Lb----17br--Lb----17-|
-----------------------------------------------------------|
-----------------------------------------------------------|
-----------------------------------------------------------|


               |---3---|                       
   E    S  S   S   S   S  E   E    E   Q       
-------15-----15h-17p-15-----20b-------------|
--18b-----18b------------18-------20---------|
--------------------------------------19~----|
---------------------------------------------|
---------------------------------------------|
---------------------------------------------|


   m.25                                      
   Q      Q      S  S  S  S   S  S  S  S   
----------------10--------------10--------|
--13b----13b-------10-13-----10----13-----|
-------------------------12b----------12b-|
------------------------------------------|
------------------------------------------|
------------------------------------------|


   S  S    S   S  S  S  E    Q     E   E    
--10----------------------------------20b--|
-------------------------------------------|
-----12br--Lb-10----12-10~---L\------------|
-----------------12------------------------|
-------------------------------------------|
-------------------------------------------|


   E     E     E    E      Q     E   S  S  
--20pb--20pb--20b--20pbr------------19-20-|
------------------------------------------|
--------------------------19~-------------|
------------------------------------------|
------------------------------------------|
------------------------------------------|


   S  S  S  S  S  S   S  S  S  S  S  S  S  E.       Q     Q    H          
--17----17--------------------------------------|-----------------------|
-----18----18----18p-17-------------------------|-----------------------|
--------------19--------19-18-17----------------|-----------------------|
---------------------------------19-18-17-15b---|-----------------------|
------------------------------------------------|--17~------------------|
------------------------------------------------|-----------------------|


  m.38                        
  H.           S   S  S  S  
---------------------------|
---------------------------|
---------------------------|
---------------------------|
----------------------8----|
-----------------/10/---10-|


   S  S S  S   S  S  S  S  S  S  S  S  S     S  S   S  
------------------------------------------------------|
------------------------------------------------------|
--------------------10----12----14----17-------19p-17-|
-----------------10----12----12----15----18g19--------|
--10----8-10s-12--------------------------------------|
-----10-----------------------------------------------|


   S  S  S  S  S   S  S  S  S    S   S   S  E   E     
----------------------------------------------------|
----------------------------------------------------|
--------19--------------17--------------------------|
--19-18----18-17s-15-------17s~-18s-17p-15----------|
---------------------17--------------------17~--L\--|
----------------------------------------------------|


  m.48                                                         
  H.               E    E       Q.      S S S S S S  S S S S  
----------------------------||-------------------------------|
---------------15g20\-------||--------------------3h-4---3-4-|
-----------------------(0)--||--5~------3-5---3-5------5-----|
-----------------------(0)--||--------------5----------------|
----------------------------||-------------------------------|
----------------------------||-------------------------------|


           |--3--|             |--3--|      
  S S  S S S  S  S S S S S S S S  S  S S S  
----4p-3---3h-4p-3-------------3h-4p-3-----|
--6------6---------6-4-3---4-----------6-4-|
-------------------------5---5-------------|
-------------------------------------------|
-------------------------------------------|
-------------------------------------------|


                                            PM                               
          |--3--|                                                            
  S S S S S  S  S S S S S S S S S  S S    S S    E  E   E   E   E   E   E    
---------------------------------------|------------------------------------|
--3---4---3h-4p-3----------------------|-------------------------------11b--|
----5---5---------5-3---5-3------------|------------------------------------|
----------------------5-----5-4-3s-1---|--1----1g3--1b----------------------|
-------------------------------------3-|----3-----------3~--L\--------------|
---------------------------------------|------------------------3/----------|


   E  S S  S  S S  S  S  S  E   S   S   S  S  
------8--------------------------------------|
---L----8-11----8-------------------------13-|
-------------10---11-10p-8-10~--8h-10s-13----|
---------------------------------------------|
---------------------------------------------|
---------------------------------------------|


   E    S   S  S  S     E   S  S  S  S  S  S  E    
-----------------13-16g18--17-16-15---------------|
--16/---------14--------------------16----16------|
-------13h-15--------------------------17----17~--|
--------------------------------------------------|
--------------------------------------------------|
--------------------------------------------------|


   E    S  S  S  S  S   S  S  S  S  S  S  S   S  S  
---------------------------------------------15-15-|
--------------------------16----18----16-18b-------|
---L~--15----17----16h-17----17----17--------------|
----------17----17---------------------------------|
---------------------------------------------------|
---------------------------------------------------|


   S    S  S  S    S  S  S    S  S  S    S  S  S    S  S  S   
----------15---------15---------15---------15---------15-18b-|
--18br--L----18br--L----18br--L----18br--L----18br--L--------|
-------------------------------------------------------------|
-------------------------------------------------------------|
-------------------------------------------------------------|
-------------------------------------------------------------|


   |----3----|                                        |---3---|        
   S     S   S  S    S  S  S    S  S  S    S  S   S   S   S   S  S  S  
--18pbr--Lp-15---------15-18br--L-15---------15h-17h-18p-17p-15----15-|
---------------18br--L---------------18br--L--------------------18----|
----------------------------------------------------------------------|
----------------------------------------------------------------------|
----------------------------------------------------------------------|
----------------------------------------------------------------------|


   S  S  S   S  S   S  S  S  S  S  S   S   S  S  S  S  
------------------------------------------------------|
--16----16p-15----------------------------------------|
-----17--------17p-15----17----15---------------------|
----------------------17----17----17p-15s-13----15----|
---------------------------------------------15----15-|
------------------------------------------------------|


   S  S   S  S  S  S  S  S  S  S  S  S  S  S     E   
---------------------------------------------18g20--|
---------------------------15----16----18-----------|
---------------15----17-------15----15----15--------|
--13--------15----17----17--------------------------|
-----15s-17-----------------------------------------|
----------------------------------------------------|


   S  S  E     E    E    Q     Q     
--18----21br---Lb--21b---L\---------|
-----18-----------------------------|
------------------------------------|
------------------------------------|
------------------------------------|
------------------------------------|


   E   S S  S  S  S  S  S  S  S  S  S S   S  S  
-------8----------8----------------------------|
--11b----8-11----------------------------------|
--------------10b---11-10p-8----10----8h-12p-8-|
-----------------------------10----10----------|
-----------------------------------------------|
-----------------------------------------------|


   S S  S S  S S S S  S  S E   S  S S  S    E   S  S S   S S S S S S S E   E    
-------11---10---8-----------------------|-------------------------------------|
--11---------------8-11----8-------------|-------------------------------------|
-----8----8----8--------10----10b-8---10-|--8----------------------------------|
------------------------------------8----|-----10----8b------------------------|
-----------------------------------------|--------10----10-9-8-6---8---6~------|
-----------------------------------------|-----------------------8---8-----6/--|


              |---3--|  |---3--|   |---3--|          
   Q      E   S  S   S  S   S  S   S   S  S  Q       
---------------------------------------------------|
--16b----16--13------------------------------------|
----------------15p-13-----------------------------|
-----------------------15p-13----------------------|
------------------------------15p-13p-11-----------|
-----------------------------------------13-11\----|


   m.79 - Waylon Kriger                                     
   Q      S   S  S  S E   E    S  S  E    
---------------------------------10------|
------------------------------10----13b--|
--10~--------------------12b-------------|
---------12p-10--------------------------|
----------------12-11--------------------|
-----------------------------------------|


   S  S   S  S   S  S  S   S  E    E    S   S  S   S     Q     Q    H         
--10---------------10--------------------------------|-----------------------|
-----13p-10-----10----13p-10-------------------------|-----------------------|
------------12b--------------12b--10~----------------|-----------------------|
---------------------------------------12p-10--------|-----------------------|
----------------------------------------------12p-10-|-----------------------|
-----------------------------------------------------|--10\------------------|


   m.83 - Lou Segreti                                                              

     
   |--3--|  |--3--|  |--3--|  |--3--|  |--3--|  |--3--|        |--3--|  
   S  S  S  S  S  S  S  S  S  S  S  S  S  S  S  S  S  S  S  S  S  S  S  
--------20-------20-------20-------20-------20-------20----------------|
--20-22----20-22----20-22----20-22----20-22----20-22----20-18-20-18----|
--------------------------------------------------------------------19-|
-----------------------------------------------------------------------|
-----------------------------------------------------------------------|
-----------------------------------------------------------------------|


   |--3--|  |--3--|  |--3--|        |--3--|                   
   S  S  S  S  S  S  S  S  S  S  S  S  S  S  S  S     E  E    
-------------------------------------------------------------|
--17-18-17---------------------------------------------------|
-----------19-17-19-17---------------------------------------|
-----------------------19-18-17-15-17-15-17-15----17g19------|
-----------------------------------------------17--------5/--|
-------------------------------------------------------------|


   m.87 - Joe Bonamassa                                                            

               
   |---3--|  |---3--|  |---3--|  |---3--|  |---3--|  |---3--|  |---3--|  |---3--
   S   S  S  S   S  S  S   S  S  S   S  S  S   S  S  S   S  S  S   S  S  S   S  
---------17-20p-17-----------17-20p-17-----------17-20p-17-----------17-20p-17--|
--17h-18-----------18-17h-18-----------18-17h-18-----------18-17h-18-----------1|
--------------------------------------------------------------------------------|
--------------------------------------------------------------------------------|
--------------------------------------------------------------------------------|
--------------------------------------------------------------------------------|


   E    E   E      E    Q     Q       
--20b--20--20pbr-------------20\----|
------------------------------------|
------------------19~---L-----------|
------------------------------------|
------------------------------------|
------------------------------------|


   m.97                                          
   W                     Q     Q    H          
---------------------|-----------------------||
--13b----------------|--13\------------------||
---------------------|-----------------------||
---------------------|-----------------------||
---------------------|-----------------------||
---------------------|-----------------------||

Duration Legend
---------------
W - whole
H - half
Q - quarter
E - 8th
S - 16th
. - note dotted
|-n-|  - n-tuplets

Tablature Legend
----------------
L - tied note
g - grace note
h - hammer on
p - pull off
b - bend
pb - preBend
S - shift slide
s - legato slide
/ -  slide into from below or out of upwards
\ -  slide into from above or out of downwards
~ - vibrato

Get my other tabs for Guitar Pro, Powertab, guitar/bass text and chords at
http://profile.ultimate-guitar.com/TexasFury/contributions/
Tap to rate this tab
# A B C D E F G H I J K L M N O P Q R S T U V W X Y Z