Song name
# A B C D E F G H I J K L M N O P Q R S T U V W X Y Z

Bloodrock - Doa tab

D.O.A. -- Bloodrock

Intro

Guitar 1
e|--------------------------------------------------------------------|
B|--------------------------------------------------------------------|
G|-8-12--8-12--8-12--8-12-----9-12-11-12---9-12-11-12-----------------|
D|--------------------------------------------------------------------|
A|--------------------------------------------------------------------|
E|--------------------------------------------------------------------|

Guitar 2
e|--------------------------------------------------------------------|
B|--------------------------------------------------------------------|
G|--------------------------------------------------------------------|
D|--------------------------------------------------------------------|
A|-6----------6--------------7-------------7--------------------------|
E|--------------------------------------------------------------------|

Guitar 1
e|--------------------------------------------------------------------|
B|--------------------------------------------------------------------|
G|-9-13--9-13--9-13--9-13-----8-9-10-11-------------------------------|
D|--------------------------------------------------------------------|
A|--------------------------------------------------------------------|
E|--------------------------------------------------------------------|

Guitar 2
e|--------------------------------------------------------------------|
B|--------------------------------------------------------------------|
G|--------------------------------------------------------------------|
D|--------------------------------------------------------------------|
A|----------------------------11-9-6-4--------------------------------|
E|-9-----------9------------------------------------------------------|

Guitar 1
e|--------------------------------------------------------------------|
B|--------------------------------------------------------------------|
G|-8-12--8-12--8-12--8-12-----9-12-11-12---9-12-11-12-----------------|
D|--------------------------------------------------------------------|
A|--------------------------------------------------------------------|
E|--------------------------------------------------------------------|

Guitar 2
e|--------------------------------------------------------------------|
B|--------------------------------------------------------------------|
G|--------------------------------------------------------------------|
D|--------------------------------------------------------------------|
A|-6----------6--------------7-------------7--------------------------|
E|--------------------------------------------------------------------|

Guitar 1
e|--------------------------------------------------------------------|
B|--------------------------------------------------------------------|
G|-9-13--9-13--9-13--9-13-----8-9--8-9--8-9--8-9--8-------------------|
D|--------------------------------------------------------------------|
A|--------------------------------------------------------------------|
E|--------------------------------------------------------------------

Guitar 2
e|--------------------------------------------------------------------|
B|--------------------------------------------------------------------|
G|--------------------------------------------------------------------|
D|--------------------------------------------------------------------|
A|----------------------------6-7--6-7--6-7--6-7--6-------------------|
E|-9-----------9------------------------------------------------------|

Both Guitars
C///  F#///  D///  G#///

Chorus

Both Guitars
C///  F#///  D///  G#///

Pre-Verse

Guitar 1
e|--------------------------------------------------------------------|
B|--------------------------------------------------------------------|
G|-9---9---9---9---9---9---9---9--------------------------------------|
D|--8---8---8---8---8---8---8---8-------------------------------------|
A|--------------------------------------------------------------------|
E|--------------------------------------------------------------------|

Guitar 1
e|--------------------------------------------------------------------|
B|--------------------------------------------------------------------|
G|-9---9---9---9------------------9---9---9---9-----------------------|
D|--8---8---8---8--10--10--10--10--8---8---8---8----10--10--10-10----|
A|-------------------9---9---9---9--------------------9---9---9---9---|
E|--------------------------------------------------------------------|

Guitar 2
C  F#   D  G# Repeats x 2

Verse

Guitar 1
e|--------------------------------------------------------------------|
B|--------------------------------------------------------------------|
G|-9---9---9---9---9---9---9---9--------------------------------------|
D|--8---8---8---8---8---8---8---8-------------------------------------|
A|--------------------------------------------------------------------|
E|--------------------------------------------------------------------|

Guitar 1
e|--------------------------------------------------------------------|
B|--------------------------------------------------------------------|
G|-9---9---9---9------------------9---9---9---9-----------------------|
D|--8---8---8---8--10--10--10--10--8---8---8---8----10--10--10-10----|
A|-------------------9---9---9---9--------------------9---9---9---9---|
E|--------------------------------------------------------------------|

Guitar 2
C  F#   D  G# Repeats x 2

Pre-Verse

Guitar 1
e|--------------------------------------------------------------------|
B|--------------------------------------------------------------------|
G|-9---9---9---9---9---9---9---9--------------------------------------|
D|--8---8---8---8---8---8---8---8-------------------------------------|
A|--------------------------------------------------------------------|
E|--------------------------------------------------------------------|

Guitar 1
e|--------------------------------------------------------------------|
B|--------------------------------------------------------------------|
G|-9---9---9---9------------------9---9---9---9-----------------------|
D|--8---8---8---8--10--10--10--10--8---8---8---8----10--10--10-10----|
A|-------------------9---9---9---9--------------------9---9---9---9---|
E|--------------------------------------------------------------------|

Guitar 2
C  F#   D  G# Repeats x 2

Verse

Guitar 1
e|--------------------------------------------------------------------|
B|--------------------------------------------------------------------|
G|-9---9---9---9---9---9---9---9--------------------------------------|
D|--8---8---8---8---8---8---8---8-------------------------------------|
A|--------------------------------------------------------------------|
E|--------------------------------------------------------------------|

Guitar 1
e|--------------------------------------------------------------------|
B|--------------------------------------------------------------------|
G|-9---9---9---9------------------9---9---9---9-----------------------|
D|--8---8---8---8--10--10--10--10--8---8---8---8----10--10--10-10----|
A|-------------------9---9---9---9--------------------9---9---9---9---|
E|--------------------------------------------------------------------|

Guitar 2
C  F#   D  G# Repeats x 2

Chorus

Both Guitars
C///  F#///  D///  G#///
C///  F#///  D///  G#///

Pre-Verse

Guitar 1
e|--------------------------------------------------------------------|
B|--------------------------------------------------------------------|
G|-9---9---9---9---9---9---9---9--------------------------------------|
D|--8---8---8---8---8---8---8---8-------------------------------------|
A|--------------------------------------------------------------------|
E|--------------------------------------------------------------------|

Guitar 1
e|--------------------------------------------------------------------|
B|--------------------------------------------------------------------|
G|-9---9---9---9------------------9---9---9---9-----------------------|
D|--8---8---8---8--10--10--10--10--8---8---8---8----10--10--10-10----|
A|-------------------9---9---9---9--------------------9---9---9---9---|
E|--------------------------------------------------------------------|

Guitar 2
 C  F#   D  G# Repeats x 2

Verse

Guitar 1
e|--------------------------------------------------------------------|
B|--------------------------------------------------------------------|
G|-9---9---9---9---9---9---9---9--------------------------------------|
D|--8---8---8---8---8---8---8---8-------------------------------------|
A|--------------------------------------------------------------------|
E|--------------------------------------------------------------------|

Guitar 1
e|--------------------------------------------------------------------|
B|--------------------------------------------------------------------|
G|-9---9---9---9------------------9---9---9---9-----------------------|
D|--8---8---8---8--10--10--10--10--8---8---8---8----10--10--10-10----|
A|-------------------9---9---9---9--------------------9---9---9---9---|
E|--------------------------------------------------------------------|

Guitar 2
 C  F#   D  G# Repeats x 2

Chorus

Both Guitars
C///  F#///  D///  G#///
C///  F#///  D///  G#///

Pre-Verse

Guitar 1
e|--------------------------------------------------------------------|
B|--------------------------------------------------------------------|
G|-9---9---9---9---9---9---9---9--------------------------------------|
D|--8---8---8---8---8---8---8---8-------------------------------------|
A|--------------------------------------------------------------------|
E|--------------------------------------------------------------------|

Guitar 1
e|--------------------------------------------------------------------|
B|--------------------------------------------------------------------|
G|-9---9---9---9------------------9---9---9---9-----------------------|
D|--8---8---8---8--10--10--10--10--8---8---8---8----10--10--10-10----|
A|-------------------9---9---9---9--------------------9---9---9---9---|
E|--------------------------------------------------------------------|

Guitar 2
C  F#   D  G# Repeats x 2

Verse

Guitar 1
e|--------------------------------------------------------------------|
B|--------------------------------------------------------------------|
G|-9---9---9---9---9---9---9---9--------------------------------------|
D|--8---8---8---8---8---8---8---8-------------------------------------|
A|--------------------------------------------------------------------|
E|--------------------------------------------------------------------|

Guitar 1
e|--------------------------------------------------------------------|
B|--------------------------------------------------------------------|
G|-9---9---9---9------------------9---9---9---9-----------------------|
D|--8---8---8---8--10--10--10--10--8---8---8---8----10--10--10-10----|
A|-------------------9---9---9---9--------------------9---9---9---9---|
E|--------------------------------------------------------------------|

Guitar 2
C  F#   D  G# Repeats x 2

Chorus
Both Guitars
C///  F#///  D///  G#///
C///  F#///  D///  G#///

Bridge
Guitar 1 and 2
Play C 

Guitar 1
e|-8--8-------------8--8--------------8--8-------------8--8-----------|
B|-8--9--8--11--9---8--9--8--11--9----8--9--8--11--9---8--9--8--11-9-|
G|----8--8--11--9------8--8--11--9-------8--8--11--9------8--8--11-9-|
D|-------8--11--9-----------8--11--9--------8--11--9---------8-11-9-|
A|--------------------------------------------------------------------|
E|--------------------------------------------------------------------|

Guitar 2
Play C 

During Ah part
Both Guitars 
C  D#  A#  C#
C  D#  A#  C#
C  D#  A#  C#
C  D#  A#  C#

Outro

Both Guitars
C///  F#///  D///  G#///
C///  F#///  D///  G#///
C///  F#///  D///  G#///
C///  F#///  D///  G#///

Guitar Solo

One guitar stays on chords, other solos
C///  F#///  D///  G#///    
C///  F#///  D///  G#///
C///  F#///  D///  G#///
C///  F#///  D///  G#///

End run, both guitars
e|--------------------------------------------------------------------|
B|--------------------------------------------------------------------|
G|--------------------------------------------------------------------|
D|-9--8--7--6--5--4--3--2--1------------------------------------------|
A|--9--8--7--6--5--4--3--2--------------------------------------------|
E|--------------------------------------------------------------------|

Tap to rate this tab
 
# A B C D E F G H I J K L M N O P Q R S T U V W X Y Z