Song name
# A B C D E F G H I J K L M N O P Q R S T U V W X Y Z

Bloodsimple - Straight Hate tab

Atrist: Bloodsimple
Song: Straight Hate
Album: A Cruel World 
Tunning: Drop A# (A# F A# D# G C))
Tabber: Majin Gaara

This was a very easy song to tab by ear but anyways without further
ado I bring you the first single of of bloosimples ablum!

Tab Legend:
V - Vibrato
. - Palm Mute

INTRO

C |------------------------------------|
G |------------------------------------|
D#|------------------------------------|
A#|------------------------------------|
F |-2-1-0-3--0-2-3-4-------------------|
A#|-2-1-0-3--0-2-3-4-0-3-0-1-0-666-----| X3
     
|-------------------------------|
|-------------------------------|
|-------------------------------|
|-------------------------------|
|-------------------------------|
|-2-1-0-3--2-3-4-3-3-1-1-66-----| 

VERSE
(Let ring throughout)
|-----------------------------------------|
|-----------------------------------------|
|-----------------------------------------|
|-----------------------------------------|
|---5------5--------6--------5------------|
|-----------------------------------------| X2


PRE CHORUS
Pickslide right before prechorus.
|------------------------------------|
|------------------------------------|
|------------------------------------|
|------------------------------------|
|-0-0-0-3-3-3-5-5-5-3-3-3-6-6-6-5-3--|
|-0-0-0-3-3-3-5-5-5-3-3-3-6-6-6-5-3--| X4

CHORUS

Play the intro x1

VERSE X2

PRE CHORUS X4

CHORUS X2 

BRIDGE
|------------------------|
|------------------------|
|------------------------|
|------------------------|
|-0-0--0-0-0-0-0--0--0---|
|-0-0--0-0-0-0-0--0--0---| X8


|-----------------------|
|-----------------------|
|-----------------------|
|-----------------------|
|-3---3---0---2-----0---|
|-3---3---0---2-----0---| 

CHORUS X2 (Let the last chord ring)

OUTRO 

|----------------------------------------------|
|----------------------------------------------|
|----------------------------------------------|
|----------------------------------------------|
|-2--1--0--3--0--2--3--4-----------------------|
|-2--1--0--3--0--2--3--4--0--3--0--1--0--6-6V--| X3
    .  .  .  .  .  .  .  .  .  .  .  .  .  . .

|----------------------------------------|
|----------------------------------------|
|----------------------------------------|
|----------------------------------------|
|----------------------------------------|
|-2--1--0--3--2--3--4--3--3--1--1--6-6V--| 
  .  .  .  .  .  .  .  .  .  .  .  . .  

|----------------------------------------------|
|----------------------------------------------|
|----------------------------------------------|
|----------------------------------------------|
|-2--1--0--3--0--2--3--4-----------------------|
|-2--1--0--3--0--2--3--4--0--3--0--1--0--6-6V--| X3
    .  .  .  .  .  .  .  .  .  .  .  .  .  . .

(at this last part right after you hit the open chord
SLOWLY press down on your wammy bar to get that
fading lower effect)
|---------------------------------------------|
|---------------------------------------------|
|---------------------------------------------|
|------------------------------------------0--|
|------------------------------------------0--|
|-2--1--0--3--2--3--4--3--3--1--1--6-6-6-6-0--| 
  .  .  .  .  .  .  .  .  .  .  .  . . . .

Tap to rate this tab
# A B C D E F G H I J K L M N O P Q R S T U V W X Y Z