Song name
# A B C D E F G H I J K L M N O P Q R S T U V W X Y Z

Bloodsport - Get Out Of My Face tab

-------------------------------------------------------------------------------
		    Get Out Of My Face - Bloodsport
-------------------------------------------------------------------------------

ARTIST   : Bloodsport
SONG     : Get Out Of My Face
ALBUM    : Imprisonment
TABBED BY: h8urlife
TUNING   : C G C F A D






Intro:

D|------------------------------------------------------------------|
A|------------------------------------------------------------------|
F|------------------------------------------------------------------|
C|------------------------------------------------------------------|
G|---------6---------------3-6-3-2---------1---------------3-5-3-6--|
C|-000-000-6-0-000-000-000---------000-000-1-0-000-000-000-3-5-3-6--|
   ... ...   . ... ... ...         ... ...   . ... ... ... 




Verse:

D|------------------------------------------------------------------|
A|------------------------------------------------------------------|
F|------------------------------------------------------------------|
C|------------------------------------------------------------------|
G|---------6-------------------------------1---------------3-5-3-6--|
C|-0-0-0-0-6-0-0-0-0-0-0-0-0-0-0-0-0-0-0-0-1-0-0-0-0-0-0-0-3-5-3-6--|
   . . . .   . . . . . . . . . . . . . . .   . . . . . . .  

     


Chorus:

D|-------------------------------------------------------------|
A|-------------------------------------------------------------|
F|-------------------------------------------------------------|
C|-------------------------------------------------------------|
G|-0-------------6--------------3-----------------------1-1-1--|
C|-0-0-000-000-0-6--0-000-000-0-3--0-000-000-0-0-11111--1-1-1--|
     . ... ... .    . ... ... .    . ... ... . . ....   . . . 





Breakdown:

D|------------------------------------------------------------------|
A|------------------------------------------------------------------|
F|------------------------------------------------------------------|
C|-------------------------4-7-4-3----------------------------------|
G|---------3-6-3-2-------------------------3-6-3-2-3--3--3--6--6--6-|
C|-0--0--0---------0--0--0---------0--0--0---------3--3--3--6--6--6-|
   .  .  .         .  .  .         .  .  .         .  .  .  .  .  .   

D|------------------------------------------------------------------|
A|------------------------------------------------------------------|
F|------------------------------------------------------------------|
C|-------------------------4-7-4-3----------------------------------|
G|---------3-6-3-2-------------------------3-6-3-2------------------|
C|-000-000---------000-000---------000-000---------333-333-666-666--|
   ... ...         ... ...         ... ...         ... ... ... ...   





Verse:

D|------------------------------------------------------------------|
A|------------------------------------------------------------------|
F|------------------------------------------------------------------|
C|------------------------------------------------------------------|
G|---------6-------------------------------1---------------3-5-3-6--|
C|-000-000-6-0-000-000-000-000-000-000-000-1-0-000-000-000-3-5-3-6--|
   ... ...   . ... ... ... ... ... ... ...   . ... ... ...    





Chorus:

D|-------------------------------------------------------------|
A|-------------------------------------------------------------|
F|-------------------------------------------------------------|
C|-------------------------------------------------------------|
G|-0-------------6--------------3-----------------------1-1-1--|
C|-0-0-000-000-0-6--0-000-000-0-3--0-000-000-0-0-11111--1-1-1--|
     . ... ... .    . ... ... .    . ... ... . . ....   . . .





Bloodsport rulez!!!
www.myspace.com/bloodsporthardcore 


Tap to rate this tab
 
# A B C D E F G H I J K L M N O P Q R S T U V W X Y Z