Song name
# A B C D E F G H I J K L M N O P Q R S T U V W X Y Z

Blouse - Into Black tab

Blouse - Into Black (7" Version)

www.facebook.com/bblouse

Tabbed by Isaac Murguia, July 2012.
YouTube: Goadiroth

INTRO:                                                       (B)
e|------------------------|------------------------|      |--------|
B|------------------------|------------------------|      |--------|
G|-----2-1----------------|-----2-1----------------|      |--------|
D|------------------------|------------------------|      |--------|
A|-4-4-------4--444-4-5-5-|-4-4-------4--444-4-2-2-| (x2) |-4------|
E|------------------------|------------------------|      |--------|

   You're like a picture
   You're never gonna be the same thing again
   But it's a strike of lightening
   Every time you look
   Every time you listen

   What do the gods know
   They'll never see the stars
   Look as small as this
   And you're a strike of lightening
   Making up a sky for the gods to kiss with

Repeat INTRO (without B)

CHORUS:
e|------------------------------------|------------------------------------|
B|------------------------------------|------------------------------------|
G|------------------------------------|------------------------------------|
D|------------------------------------|------------------------------------|
A|-00000000----------4444-444-4444444-|-00000000----------4444-4-44-44-440-|
E|----------22222222------------------|----------2-222222------------------|

Repeat INTRO (with B)

   What of the missile
   It doesn't even own its own way to go
   That's not the way they made you
   The colors in your eyes
   Are like a stained glass window

   And when your tears fall
   You never really see them
   When they hit the ground
   But when they do they rise back
   Over to the gods raining on the god ground

BRIDGE:
e|------------------|--------------------------|
B|------------------|--------------------------|
G|------------------|--------------------------|
D|------------------|----------/-\-----/-\-----|
A|-4-44-4444-444555-|-4-44-444-400-0-0-455-5-5-|
E|------------------|--------------------------|

e|-----------------------|-----------------------|
B|-----------------------|-----------------------|
G|-----------------------|-----------------------|
D|---------------/-\-----|----------/-\----------|
A|-4-44-4444-4-4-455-5-5-|-4-44-444-400-0-0------|
E|-----------------------|------------------4545-|

CHORUS VARIATION:
e|------------------------------------|-----------------------------------|
B|------------------------------------|-----------------------------------|
G|------------------------------------|-----------------------------------|
D|------------------------------------|------------------------------2200-|
A|-0000-000----------4444-444-4445555-|-4-44-4444-445555-4-44-444-444-----|
E|----------2222-222------------------|-----------------------------------|

e|-----------------------------------|-----------------------------------|
B|-----------------------------------|-----------------------------------|
G|-----------------------------------|-----------------------------------|
D|------------------------------2200-|-----------------------------------|
A|-4-44-4444-445555-4-44-444-444-----|-4-44-4444-445555-4-44-444-4442220-|
E|-----------------------------------|-----------------------------------|

Repeat INTRO, then the echo bit:

e|------------------|
B|------------------|
G|------------------|
D|------------------|
A|-2-2--2-2--2------|
E|------------------| end.
Tap to rate this tab
# A B C D E F G H I J K L M N O P Q R S T U V W X Y Z