Song name
# A B C D E F G H I J K L M N O P Q R S T U V W X Y Z

Blue Collar Special - Waste My Time tab

|===========================|
|Waste My Time              |
|                           |
|Blue Collar Special        |
|===========================|

Standard Tuning (E,A,D,G,B,e)

A fantastic song by the world's greatest (but most unknown) band.
A very special thank you to UG user "Limebass", who tabbed the bass for this song and 
tabbing the guitar for it a LOT easier! :)
Please tell me what you think!


Intro x2
Guitar 1 (only play the first note at the start of the intro)
e|------------------------------------------------------------------------|
B|------------------------------------------------------------------------|
G|-----7--------7-7--7-7---7-7-7-7---7-7--77-7-9-11---12--11-12--11-9-----|
D|-----5--------5-5--5-5---5-5-5-5---5-5--55------------------------------|
A|------------------------------------------------------------------------|
E|------------------------------------------------------------------------|

Guitar 2
e|------------------------------------------------------------------------|
B|------------------------------------------------------------------------|
G|--------------7-------------------------4-------------------------------|
D|--------------5------------5------------2-----------5------7------------|
A|---------------------------3------------------------3------5------------|
E|------------------------------------------------------------------------|


Verse x2

Part 1
Guitars 1&2
e|--------------------------------------------------------------------|
B|--------------------------------------------------------------------|
G|----------7-------------------------4-------------------------------|
D|----------5------------5------------2-----------5------7------------|
A|-----------------------3------------------------3------5------------|
E|--------------------------------------------------------------------|
           I don't care what you think of me...

Part 2
Guitars 1&2
e|--------------------------------------------------------------------|
B|--------------------------------------------------------------------|
G|----7-7-7-7-7-7-7-7-4-4-4-4-4-4-4-4-2-2-2-2-2-2-2-2-----------------|
D|----5-5-5-5-5-5-5-5-2-2-2-2-2-2-2-2-0-0-0-0-0-0-0-0-5-5-5-5-5-5-5-5-|
A|----------------------------------------------------3-3-3-3-3-3-3-3-|
E|--------------------------------------------------------------------|
     Everything you say to me and everything you do...


Intro x2


Verse x2


Part 2 of the verse is played on Guitar 2 during the solo.
Haven't worked out the solo yet, but I'm working on it!!
Tap to rate this tab
# A B C D E F G H I J K L M N O P Q R S T U V W X Y Z