Song name
# A B C D E F G H I J K L M N O P Q R S T U V W X Y Z

Blue Oyster Cult - Nosferatu tab

-----------------------------------------------------------------------------
                          Nosferatu - Blue Öyster Cult
-----------------------------------------------------------------------------

Tabbed by: Blooker

Key:
************************************

| /   slide up
| \   slide down
| h   hammer-on
| p   pull-off
| ~   vibrato
| +   harmonic
| x   Mute note
| b   Bend
| pb  Pre-bend
| br  Bend release
| pbr Pre-bend release
| brb Bend release bend

************************************

4.10....
e|--------------------------------------------------------------------------|
B|-10b-10b~--10pb~-10pb~---10br-10p8-10-8-10/12-10-8------------------------|
G|---------------------------------------------------9-7-7h9-9--------------|
D|--------------------------------------------------------------------------|
A|--------------------------------------------------------------------------|
E|--------------------------------------------------------------------------|

e|--------------------------------------------------------------------------|
B|------------------------------------------10brp8--------------------------|
G|-------9------------------------------------------9~\---------------------|
D|-5h7/9---7-5--------------------------------------------------------------|
A|--------------7--5--------------------------------------------------------|
E|-------------------7-6-5-3-0----------------------------------------------|

e|-15-12--------------------------------------------------------------------|
B|------15-12---------------------------------------------------------------|
G|-----------14-12----------------------12br\9--12br\9~---------------------|
D|----------------14-12-----------------------------------------------------|
A|---------------------14-12------------------------------------------------|
E|--------------------------15-12-------------------------------------------|

e|----------------------------------15-17b-17--17br-17-17brp15--------------|
B|-------------------------------17----------------------------17-----------|
G|----------14brp12--12/14--------------------------------------------------|
D|--------------------------------------------------------------------------|
A|--------------------------------------------------------------------------|
E|--------------------------------------------------------------------------|

e|-------15-17-15----15-17-15----15-17-15-----17brp15-----15-----15---------|
B|-17-17----------17----------17----------17----------17-----17-----17-15---|
G|--------------------------------------------------------------------------|
D|--------------------------------------------------------------------------|
A|--------------------------------------------------------------------------|
E|--------------------------------------------------------------------------|

e|--------------------------------------------------------------------------|
B|--------------------------------------------------------------------------|
G|-16-14-14b-14br\12--------------2-2h4p2-2-2---2-4-2b----------------------|
D|-------------------14-------2-5-------------5--------5-2------------------|
A|--------------------------------------------------------------------------|
E|--------------------------------------------------------------------------|

e|---------------------------------------------------------------10-12/17b~-|
B|-10b-10-8-10p8---------------------------10--10-12-10----10-12------------|
G|---------------9~-9~-9~-9~-9~--11-9-11-12--12---------12------------------|
D|--------------------------------------------------------------------------|
A|--------------------------------------------------------------------------|
E|--------------------------------------------------------------------------|

e|-17b~-17b~-17b~-17b~-17b~-17b~r0--17pbrp15-17----17-15-17~----------------|
B|----------------------------------------------17--------------------------|
G|--------------------------------------------------------------------------|
D|--------------------------------------------------------------------------|
A|--------------------------------------------------------------------------|
E|--------------------------------------------------------------------------|

Cheers!
Tap to rate this tab
# A B C D E F G H I J K L M N O P Q R S T U V W X Y Z