Song name
# A B C D E F G H I J K L M N O P Q R S T U V W X Y Z

Blue Rodeo - Bulletproof chords

Highlighted       Show chord diagrams
Bulletproof
by Blue Rodeo

Fill 1
-----------------------|
-----------------------|
-------------4-2-4~~---|
-----------------------|
----3~~----------------|
-3~--------------------|


Fill 1 x 2


C                     AAug                     Dm
Tell me one more time again just like I didn't hear you
             Fm                           A#Dim3 C
Like I don't know whats goin through your mind I do
                C/E        Am
I've played the same games too
             F                          G4   G
You know its hard to stop even when you want to

C                           AAug                      Dm
Now the moon lights up your face and I can see you're crying
          Fm                  A#Dim3  C
You never liked me to see you cry its true
               C/E    Am
I've done some crying too
             F                                G4           G
You know the hardest part about its trying to hide it from you
F                    Am
It would be great to be so strong
C            C/E     C/A     Am
Never needed anybody else to along
          F                             G4             G
And we so scared of the silence and the tricks that we use
         C                 C/E               C/A    Am
Oh we're careful and we're cunning but we're easily bruised
F                            G4  C         C
I don't want to lie about it I'm not bulletproof

C                         AAug                      Dm
Well I've finally found a way to hide from all your glances
         Fm               A#Dim3  C
Till the waiting game you play is through
          C/E        Am
I can but what's the use
     F                          G4            G
When all I really want to do is hide out with you
F                         Am
Well it would be great to be so strong
C            C/E       C/A         Am
Never needed anybody's help to get along
          F                             G4               G
And we so scared of the silence and the language that we use
         C                 C/E               C/A    Am
Oh we're careful and we're cunning but we're easily bruised
F                            G4  G         C
I don't want to kid about it I'm not bulletproof

    Solo - below

C                    AAug                        Dm
Tell me on more time again well I guess I didn't hear you
                 Fm              A#Dim3        C
And I don't know all the secrets that you keep inside
          C/E        Am
Tried the same thing too
         F                                  G4         G
But they all come pouring out of me when Im talking to you
F                         Am
Well it would be great to be so strong
C            C/E       C/A           Am
Never needed anybody's help to carry on
            F                              G4             G
But I'm not waking up each morning with forgiveness I can use
       C                C/E               C/A    Am
No I'm careless and I'm cruel but I still easily bruised
    F                              G4  G         Am
And I'm so tired of lying about it I'm not bulletproof
F                             G4  G         C
I'm not going to lie about it I'm not bulletproof

Fill1 x 2

Chords
C     : 032010
AAug  : 002320
Dm    : -02231
Fm    : --3111
A#Dim3: -20440
C/E   : 02-010
Am    : 002210
F     : 133211
G4    : 320013
G     : 320003
C/A   : 002010

The chords may not be named correctly, esp A#Dim3.


Solo

F
------------------------------------------|
------------------------------------------|
-------------12--14-12--14~~T-------------|
-------12-15------------------------------|
-12-14------------------------------------|
------------------------------------------|

                G4          G
------------------------------------------|
--------12--13--15--13--12--12------------|
-- /14------------------------------------|
------------------------------------------|
------------------------------------------|
------------------------------------------|

                                 C
------------------------------------------|
--------12-----15p13p12-------------------|
-----13-------------------14p12--14~~-----|
--14--------------------------------------|
------------------------------------------|
------------------------------------------|

  C/E         C/A                Am
--12-12-12\-------------------------------|
--------------15-15-15-13-12-----15-13----|
---------------------------------------14-|
------------------------------------------|
------------------------------------------|
------------------------------------------|

  F
------------------------------------------|
------------13-------13-------------------|
--14-----14----12/14----14----------------|
------15-------------------15--12---------|
------------------------------------------|
------------------------------------------|

  G4          G                C
------------------------------------------|
------------------------------------------|
--/14--12---------------------------------|
-----------14-15---15--14--12--10~~-------|
------------------------------------------|
------------------------------------------|
Tap to rate this tab
 
# A B C D E F G H I J K L M N O P Q R S T U V W X Y Z