Song name
# A B C D E F G H I J K L M N O P Q R S T U V W X Y Z

Blur - Charmless Man tab

Song - Charmless Man
Album - The Great Escape
Year - 1995

Gt. 1 
Intro/Bridge
                                                                                        (x2)        (Fills)
E  |---------------------|-------------------------------------|----------|----------|
B  |---------------------|-------5-----3-------3p2 3p2---------|---5b-5b--|----------|
G  |---------------------|-------4-----2---------------2-------|---7b--7b-|----------|
D  |---------------------|-4/6---------4-----------------------|----------|----------|
A  |--0-0-0-0-0-0-0 (x3)--|-------------2-----------------------|----------|----------|
E  |---------------------|-------------------------------------|----------|--4p0-4p0-|


E |--12-(x7)--------------------------------------------|
B |--12----------13---(x8)------------------------------|
G |--13----------11------------------------------------|
D |--14----------10------------------------------------|
A |--------------12------------------------------------|
E |---------------10------------------------------------|


Gt 2.

E |---------------------------------------------------------
B |---------------------------------------------------------
G |-----12b-------------------------------------------------
D |------------------12b------------------------------------
A |--x----------x-------------------------------------------
E |----------------------------------15-14-12---------------



Tap to rate this tab
 
# A B C D E F G H I J K L M N O P Q R S T U V W X Y Z