Bob And Doug Mckenzie - Take Off tab

TAKE OFF by Bob & Doug McKenzie SOLO
tabbed by NonNobisSolum aka thinlizzy71

standard tuning

                                 suggested left hand fingerings for the fast bit

                                     2  2  1  3   2       1  3  2  1(barre)
E|--------------------------------|------------------------------------------|
B|--12b14--10---------------------|-----------17---------------15-14---------|
G|--------------------------------|--------14----16b18r--14---------14-------|
D|-------------11-14-12-11--------|-------------------------16--------14-14--|
A|-------------------------12/14--|--14/16-----------------------------------|
E|--------------------------------|------------------------------------------|



E|---------------------------------------|------------20b21--19--17\---------|
B|------------------------------------19-|--22b24-22-------------------------|
G|-/19-18-19-18-19b21r--19-18-19-18------|-----------------------------------|
D|----------------------------------19---|-----------------------------------|
A|---------------------------------------|-----------------------------------|
E|---------------------------------------|-----------------------------------|


	/ = slide up to
	
	\ = slide down from

	12b14 = bend first note to pitch of second

	r = audibly release bend

	1 = index finger
	2 = middle finger
	3 = 3rd/ring finger
	4 = little finger

http://bobanddoug.com/
Tap to rate this tab
 
# A B C D E F G H I J K L M N O P Q R S T U V W X Y Z