Song name
# A B C D E F G H I J K L M N O P Q R S T U V W X Y Z

Bob Marley - Redemption Song tab

-------------------------------------------------------------------------------
			     Redemption Song - Bob Marley
-------------------------------------------------------------------------------
Tabbed by:NSNF

Tuning:Standard
  This is how I think the intro to a great song is played.

e|---------------------------------------------------------------------------|
B|---------------------------------------------------------------------------|
G|---------------------------------------------------------------------------|
D|---------------1/2-0--------0----------------------------------------------|
A|---0--2----2/3-------2----02-232--0----------------------------------------|
E|-3-------3--------------3-----------3--------------------------------------|

e|---------------------------------------------------------------------------|
B|---------------------------------------------------------------------------|
G|---------------------------------------------------------------------------|
D|-------------1/2-0---------0-----------------------------------------------|
A|---0-2---2/3-------2---0-2--3-2-0------------------------------------------|
E|-3-----3-------------3------------3----------------------------------------|

Then Starts off with a G chord

| /  slide up
| \  slide down
| h  hammer-on
| p  pull-off
| ~  vibrato
| +  harmonic
| x  Mute note
===============================================================================
Tap to rate this tab
# A B C D E F G H I J K L M N O P Q R S T U V W X Y Z