Song name
# A B C D E F G H I J K L M N O P Q R S T U V W X Y Z

Bob Seger - Wait For Me tab

-------------------------------------------------------------------------------
Wait for Me – Bob Seger
-------------------------------------------------------------------------------

Tabbed by: Ross Dubois
Email:

Tuning: Standard

Intro: 	G#  	C#  	G#  	C#

e|---11~-------------------------------------------------------------------|
B|-------------------------------------------------------------------------|
G|-------------------------------------------------------------------------|
D|-------------------------------------------------------------------------|
A|----------------------4---6---8------------------------------------------|
E|-----------------4/6---------------8p6-----------------------------------|

		    	         G#
	I will lance through the wind
	               	      C#
	I will leave with the tide
	                   G#
	I’ll be out on the road
	                    C#
	Every chance I can ride

                      Fm
	No matter how far
     Eb               C#
	No matter how free
     Cm          Bbm
	I’ll be along
     Fm 	        G#	  C#
	If you’ll wait for me


			        G#
	They’ll be times when I rise
			           C#
	They’ll be times when I'll fall
			           G#
	They’ll be times when it’s best
		          C#
	To say nothing at all

		         Fm
	Know when you’re right
     Eb		       C#
	I’m letting it be
     Cm         Bbm
	I’ll be around
     Fm	       	           G#
	If you’ll wait for me,
     C#		          G#
	If you’ll wait for me

                 Fm	        Eb	    G#
	And I’ll fight for the right to go over that hill
	      Fm	    Eb	        G#
	If it always means something to me
	       Bbm	F#m
	I will not be persuaded
	G#
	I won’t be still
			       Eb
	I’ll find a way to be free

Solo:  G#   C#    G#    C#
Solo:
e|-------------------------------------------------------------------|
B|-----11b—11---9----9----6-----9------------------------------------|
G|------------------------------------7---5---5---5------------------|
D|-----------------------------------------------------8---6---------|
A|-------------------------------------------------------------------|
E|-------------------------------------------------------------------|

e|-------------------------------------------------------------------|
B|-----------------4----6---4----/9-9~-----/11b---13---11--13--11----|
G|-------------6-----------------------------------------------------|
D|--0---3--6---------------------------------------------------------|
A|-------------------------------------------------------------------|
E|-------------------------------------------------------------------|

e|-------------------------------------------------------------------|
B|----11---9---11---9-----6-/11---9----------------------------------|
G|-------------------------------------------------------------------|
D|-------------------------------------------------------------------|
A|-------------------------------------------------------------------|
E|---------------------------------------------===-------------------|

                            G#
	In the cool of the night
		            C#
	In the heat of the day
		          G#
	If you’re ever in doubt	   * * * See below for guitar licks being
                      C#                 played here
	I’ll be on my way
		         Fm
	Straight to your sun	    * * *
     Eb           C#
	I guarantee		    * * *
     Cm         Bbm
	I’ll be around
     Fm	       	           G#
	If you’ll wait for me,
     C#		           G#
	if you’ll wait for me


This is played while the female singers are singing in the last section. As they sing 
in “Wait for me” begin playing this lick:
e|----------------------------------------|
B|----------------------------------------|
G|----------------------------------------|
D|----------------------------------------|
A|-------------4---6---8------------------|
E|--------4/6---------------8p6-----------|

        G#       C#      G#       C#
	Wait for Me,     Wait for Me,
        G#       C#      G#       C#
	Wait for Me,     Wait for Me


Outro
e|------------------------------------------|
B|------------------------------------------|
G|------------------------------------------|
D|----------6--------8--------6-------------|
A|----/8-------8--------6-------------------|
E|------------------------------------------|


*** Licks played throughout the last verse***

                       E-----------------------|
                       B-----11b—9—11—9--------|
                       G-----------------------|
                       D-----------------------|
                       A-----------------------|
                       E-----------------------|
If you’re ever in doubt

                   E--------------          e---------------------|
                   B-----4h6p4----          B---2p1---------------|
                   G--------------          G---------------------|
                   D--------------          D---------------------|
                   A--------------          A---------------------|
                   E--------------                E---------------|

Straight to your sun			I guarantee
Tap to rate this tab
 
# A B C D E F G H I J K L M N O P Q R S T U V W X Y Z