Bob Seger - Rock And Roll Never Forgets tab

		                       Rock and Roll Never Forgets
		                   Bob Seger and the Silver Bullet Band


Intro
e|-------------------------------------------------0---0---0------------|
B|---5---5-5---5-----5---5-5---5-----2---2-2---2---0---0---0------------|
G|-4---4-----4-----4---4-----4-----2---2-----2-----1---1---1------------|
D|-------------------------------------------------2---2---2------------|
A|-------------------------------------------------2---2---2------------|
E|-------------------------------------------------0---0---0------------|


Verse:
F#m                                                         E
So you're a little bit older and a lot less bolder than you used to be
F#m                                                        E
Used to shake 'em down, now you stop adn think about your dignity
       A                      E
So now sweet sixteen's turned thirty-one
     A                            E 
You get to feelin' weary when the workday's done
A                             E                B
Well all you got to do is get up and into your kicks
               F#m
If you're in a fix

Chorus
A               B                       E 
Come back baby, rock and roll never forgets


         A                      E                     
Ooh, the bands still playing it loud and lean
A                           E                    
Listen to the guitar player making it scream
A                         E                 B      
All you got to do is just make that scene tonight
     B7                                          
Hey, tonight

Solo:

   F#                               E

e|-------14-14---------------------------16~~~~16-------16~~~~16---------|
B|-14----14-14-----------------------------------------------------------|
G|-13b15-------15r13-------11-11---14s16~~~~16----14s16~~~~16------------|
D|-------------------11-13-----------------------------------------------|
A|-----------------------------------------------------------------------|
E|-----------------------------------------------------------------------|
   F#                               E
e|-----------------------------------------------------------------------|
B|-14--------------------------------------------------12\x8-------------|
G|-13b15r13-11h13p11-------------11-13b15r13-11------9s13/---11-9----9~~~|
D|-------------------13-11-11-13----------------9-11--------------11-----|
A|-----------------------------------------------------------------------|
E|-----------------------------------------------------------------------|



Legend:
b: bend
r: release
~: vibrato
s: slide
Tap to rate this tab
 
# A B C D E F G H I J K L M N O P Q R S T U V W X Y Z