Song name
# A B C D E F G H I J K L M N O P Q R S T U V W X Y Z

Bob - Airplanes chords

Highlighted       Show chord diagrams
-------------------------------------------------------------------------------
			     B.O.B - Airplanes ft. Halley Williams
-------------------------------------------------------------------------------
Tabbed by: NoXeL

The song is very similar to Existentialism on Prom Night by Straylight Run.

For the intro just use down/up arpeggios for either of the three chords used below.

Tuning: Drop D, Half-Step Down

e|----x----x----x------------------------------------------------------------|
B|----x----x----x------------------------------------------------------------|
G|----7----8----10-----------------------------------------------------------|
D|----5----8----8------------------------------------------------------------|
A|----5----6----8------------------------------------------------------------|
D|----5----x----8------------------------------------------------------------|


OR

Tuning: Standard
       EADGBe
F#m   (244222)
Dsus2 (xx0230)
A     (x02220)

F#m, Dsus, A (repeat throughout song)
Tap to rate this tab
# A B C D E F G H I J K L M N O P Q R S T U V W X Y Z