Bob - Magic tab

I only tabbed this cause i was really bored and it was really easy.

This is the little run that the synth plays throughout the song.

e[-7-6--4-2------------]
B[-----------5-4--2-0--]
G[---------------------]
D[---------------------]
A[---------------------]
E[---------------------]

This is the rest of the song.

Verse:

e[-----------------]
B[-----------------]
G[-----------------]
D[-----------------]
A[-----7-7---------]
E[-7-7-----4-4-2-2-]

The chorus is that as power chords.  That's it (I think).  If not, i dont care. somebody 
can tab it.
Tap to rate this tab
 
# A B C D E F G H I J K L M N O P Q R S T U V W X Y Z