Song name
# A B C D E F G H I J K L M N O P Q R S T U V W X Y Z

Bobaflex - Medicine tab

Song: Medicine
Artist: Bobaflex
Tabbed by: Gabe Thomas
Email: Gabethomas@lavabit.com

PM - .

Verse:

D|----------------|  Play 4x.                           |------------|
A|----------------|                                     |------------|
F|-7---10--14--10-|  This part may be played like --->  |-7-10-14-10-|
C|-0---0---0---0--|                                     |-0-0--0--0--|
G|----------------| I can't really hear if it is or not.|-0-0--0--0--|
C|----------------| You pick what you like better.      |-0-0--0--0--|


Chorus:

D|------------------|----------------------|
A|---8--------------|---8------------------|
F|----------10------|----------10----------| Play 2x
C|-0---10-8----8-7~-|-0---10-8----8-7h8p7~-|
G|------------------|----------------------|
C|------------------|----------------------|

D|-----------------------|-----------------------------|
A|-----------------------|------------13------------13-|
F|-----------------------|-----10------------10--------|
C|-0-0---0-0---0-0---0-0-|-0-0----0-0----0-0----0-0----|
G|-0-0---0-0---0-0---0-0-|-0-0----0-0----0-0----0-0----|
C|-0-0---0-0---0-0---0-0-|-0-0----0-0----0-0----0-0----|
   . .   . .   . .   . .   . .    . .    . .    . .

D|------------|------------|-----------------------------------|
A|------------|------------|-----------------------------------|
F|------------|------------|-----------------------------------|
C|-7~--0~--3~-|-7~--0~--3~-|-----7--------0--------3-----------| Play 2x
G|-7~--0~--3~-|-7~--0~--3~-|-----7--------0--------3---2---3---|
C|-7~--0~--3~-|-7~--0~--3~-|-7-7-7-7--0-0-0-0--3-3-3-0---0---0-|
                             . .   .  . .   .  . .   . . . . .

Then the outro is just the same thing as the verse/intro but you play every chord twice. 
the outro until it's over.

Order of song:
Verse
Chorus
Verse
Chorus
Verse
Outro

I submitted an identical tab but forgot to log on and put the heading at the top, so if 
two tabs that are the same they're both mine.

This is a pretty easy and fun song to play, enjoy!
Tap to rate this tab
 
# A B C D E F G H I J K L M N O P Q R S T U V W X Y Z