Song name
# A B C D E F G H I J K L M N O P Q R S T U V W X Y Z

Bobbly Helms - Jingle Bell Rock tab

|--------14-14-14---14-14-14--14--17-------14---------------------------------------|
|--------15-15-15---14-14-14--15-----15-17----17-15---------------15-15-15-14-14-14-|
|---------------------------------------------------16-14---------------------------|
|-----------------------------------------------------------------------------------|
|-----------------------------------------------------------------------------------|
|---------------------------------------------------------5-3-2-0-------------------|

|----------------------------------------------------------------------------------|
|-----14----------14-------------14------------8-10-12-10------8-10-12-10-12-10-12-|
|--16----16-11-16----16-11-14-16----16-12-9-11------------9-11---------------------|
|----------------------------------------------------------------------------------|
|----------------------------------------------------------------------------------|
|----------------------------------------------------------------------------------|

|-------------------------------------------------------------------------------------|
|--12\6--6-15-15-15-14-14-14----14----------14-------------------15-17-15----15-17-15-|
|----------------------------16----16-11-16----16-11-14-16-16-16----------15----------|
|-------------------------------------------------------------------------------------|
|-------------------------------------------------------------------------------------|
|-------------------------------------------------------------------------------------|

|--------------------------------------------------|
|--15----14-------15----14-------15----14-15-17-15-|
|-----16----16-14----16----16-14----16----------14-|
|--------------------------------------------------|
|--------------------------------------------------|
|--------------------------------------------------|

http://www.bobbyhelms.com/
Tap to rate this tab
 
# A B C D E F G H I J K L M N O P Q R S T U V W X Y Z