Song name
# A B C D E F G H I J K L M N O P Q R S T U V W X Y Z

Bobby Helms - Jingle Bell Rock tab

-----------------------------------------------------------------
                 "Jingle Bell Rock" - Bobby Helms
-----------------------------------------------------------------
Tabbed by: Legend477
Email: legend477@live.com

Tuning:STANDARD



intro:
e|-14-14-14----14-14-14----14--17------------------------------------------|
B|-15-15-15----14-14-14----15-----15-17-17b-17-----------------------------|
G|---------------------------------------------16-14-----------------------|
D|-------------------------------------------------------------------------|
A|-------------------------------------------------------------------------|
E|---------------------------------------------------------------5-3--2--1-|

melody:
e|-------------------------------------------------------------------------|
B|-15-15-15--14-14-14--12-14-12------12-14-12--------12-14-12--------------|
G|------------------------------11------------11-14-----------12~----------|
D|-------------------------------------------------------------------------|
A|-------------------------------------------------------------------------|
E|-------------------------------------------------------------------------|
  Jingle Bell, jingle bell, jingle bell rock...
  Jingle bells swing and jingle bells ring.

e|-------------------------------------------------------------------------|
B|-----------------------------------12-12--14--12--14---------------------|
G|-9-11--11-12-14---9-11-12-14-------------------------14-14---------------|
D|-------------------------------------------------------------------------|
A|-------------------------------------------------------------------------|
E|-------------------------------------------------------------------------|
  Snowin' and blowin' up bushels of fun. Now the Jingle Rock has begun!

e|-------------------------------------------------------------------------|
B|-15-15-15--14-14-14--12-14-12------12-14-12--------12-14-12--------------|
G|------------------------------11------------11-14-----------12~----------|
D|-------------------------------------------------------------------------|
A|-------------------------------------------------------------------------|
E|-------------------------------------------------------------------------|
  Jingle bell, jingle bell, jingle bell rock...
  Jingle bell time and jingle bell chime.

e|-------------------------------------------------------------------------|
B|-----------------------------------12-12--14----15-----------------------|
G|-9-11--11-12-14---9-11-12-14-----------------14--------------------------|
D|-------------------------------------------------------------------------|
A|-------------------------------------------------------------------------|
E|-------------------------------------------------------------------------|
  Dancin' and prancin' in Jingle Bell Square
  In the frosty air!


riff:
e|-------------------------------------------------------------------------|
B|-14-15-17~-15---12-15-17~-15----15-15--14--12----------------------------|
G|---------------------------------------------14-11-----------------------|
D|-------------------------------------------------------------------------|
A|-------------------------------------------------------------------------|
E|-------------------------------------------------------------------------|
  What a bright time, its the right time
  to rock the night away

e|-------------------------------------------------------------------------|
B|-14-15-17~-15---12-15-17~-15----12x5-14-12-------------------------------|
G|-------------------------------------------14----------------------------|
D|-------------------------------------------------------------------------|
A|-------------------------------------------------------------------------|
E|-------------------------------------------------------------------------|
  Jingle bell time, it's a swell time
  To go gliding in a one-horse sleigh!


melody:
e|-------------------------------------------------------------------------|
B|-15-15-15--14-14-14--12-14-12------12-14-12--------12-14-12--------------|
G|------------------------------11------------11-14-----------12~----------|
D|-------------------------------------------------------------------------|
A|-------------------------------------------------------------------------|
E|-------------------------------------------------------------------------|
  Giddy-up, Jingle horse, pick up your feet.
  Jingle around the clock!


verse:
e|-------------------------------------------------------------------------|
B|-12--15--17--15-----11---15-17-------12-12--14-15-17--15~----------------|
G|-------------------------------------------------------------------------|
D|-------------------------------------------------------------------------|
A|-------------------------------------------------------------------------|
E|-------------------------------------------------------------------------|
  Mix and a-mingle in the jingling feet.
  That's the jingle bell rock!


melody:
e|-------------------------------------------------------------------------|
B|-15-15-15--14-14-14--12-14-12------12-14-12--------12-14-12--------------|
G|------------------------------11------------11-14-----------12~----------|
D|-------------------------------------------------------------------------|
A|-------------------------------------------------------------------------|
E|-------------------------------------------------------------------------|
  Jingle bell, jingle bell, jingle bell rock.
  Jingle bell chime in jingle bell time!

e|-------------------------------------------------------------------------|
B|-----------------------------------12-12--14----15-----------------------|
G|-9-11--11-12-14---9-11-12-14-----------------14--------------------------|
D|-------------------------------------------------------------------------|
A|-------------------------------------------------------------------------|
E|-------------------------------------------------------------------------|
  Dancing and prancing in Jingle Bell Square
  In the frosty air!


riff:
e|-------------------------------------------------------------------------|
B|-14-15-17~-15---12-15-17~-15----15-15--14--12----------------------------|
G|---------------------------------------------14-11-----------------------|
D|-------------------------------------------------------------------------|
A|-------------------------------------------------------------------------|
E|-------------------------------------------------------------------------|
  What a bright time, it's the right time
  To rock the night away!

e|-------------------------------------------------------------------------|
B|-14-15-17~-15---12-15-17~-15----12x5-14-12-------------------------------|
G|-------------------------------------------14----------------------------|
D|-------------------------------------------------------------------------|
A|-------------------------------------------------------------------------|
E|-------------------------------------------------------------------------|
  Jingle bell time, it's a swell time
  To go gliding in a one-horse sleigh


melody:
e|-------------------------------------------------------------------------|
B|-15-15-15--14-14-14--12-14-12------12-14-12--------12-14-12--------------|
G|------------------------------11------------11-14-----------12~----------|
D|-------------------------------------------------------------------------|
A|-------------------------------------------------------------------------|
E|-------------------------------------------------------------------------|
  Giddy up jingle horse, pick up your feet.
  Jingle around the clock!


verse:
e|-------------------------------------|---------------|-------------------|
B|-12--15--17--15-----11---15-17-------|12-12--14-15-17|--15~--------------|
G|-------------------------------------|---------------|-------------------|
D|-------------------------------------|---------------|x3-----------------|
A|-------------------------------------|---------------|-------------------|
E|-------------------------------------|---------------|-------------------|
   Mix and a-mingle in the jingling feet.
   That's the jingle bell, that's the jingle bell, 
   that's the jingle bell rock!




Merry Christmas!

-Legend477-  2010


*****************************
| b      Bend
| ~      Vibrato
*****************************
Tap to rate this tab
 
# A B C D E F G H I J K L M N O P Q R S T U V W X Y Z