Song name
# A B C D E F G H I J K L M N O P Q R S T U V W X Y Z

Boehse Onkelz - Benutz Mich tab

#----------------------------------PLEASE NOTE--------------------------------#
#This file is the author's own work and represents their interpretation of the#
#song. You may only use this file for private study, scholarship, or research.#
#-----------------------------------------------------------------------------#

Author/Artist: Böhse Onkelz
Title: Benutz Mich
Album: 20 Jahre Live in Frankfurt
Tabbed by: Jan Schuster
Email: admin@janschuster.com

Tuning: Eb Ab db gb bb eb (Half step down from Standard tuning)

x = Deadnotes


Intro
e|-------------------8-------------------------------------------------------|
B|------8--10--8--8-----8------10--8-----------------------------------------|
G|---------------------------------------------------------------------------|
D|--10---------------------10------------------------------------------------|
A|---------------------------------------------------------------------------|
E|---------------------------------------------------------------------------|

e|-------------------8-------------------------------------------------------|
B|------8--10--8--8-----8------10--8-----------------------------------------|
G|------------------------------------------x--5--------x--5-----------------|
D|--10---------------------10-----------55--x--5----55--x--5-----------------|
A|--------------------------------------55--x--3----55--x--3-----------------|
E|--------------------------------------33--x-------33--x--------------------|

(Background Guitar - If you play with two guitars)
e|---------------------------------------------------------------------------|
B|---------------------------------------------------------------------------|
G|--55555555----33333333-----------------------------------------------------|
D|--55555555----33333333----77777777----55555555-----------------------------|
A|--33333333----11111111----77777777----55555555-----------------------------|
E|--------------------------55555555----33333333-----------------------------|

e|---------------------------------------------------------------------------|
B|---------------------------------------------------------------------------|
G|--55555555----33333333--------------------x--5--------x--5-----------------|
D|--55555555----33333333----77777777----55--x--5----55--x--5-----------------|
A|--33333333----11111111----77777777----55--x--3----55--x--3-----------------|
E|--------------------------55555555----33--x-------33--x--------------------|
       
                                                                       
Verse 1
(Dein Gesäß ist ein Magnetfeld...)
e|---------------------------------------------------------------------------|
B|---------------------------------------------------------------------------|
G|--55555555----33333333-----------------------------------------------------|
D|--55555555----33333333----77777777----55555555-----------------------------|
A|--33333333----11111111----77777777----55555555-----------------------------|
E|--------------------------55555555----33333333-----------------------------|
      
                                                                        
Chorus
(Komm benutz mich, tu alles was du willst...)
e|---------------------------------------------------------------------------|
B|---------------------------------------------------------------------------|
G|--55555555-----------------------------------------------------------------|
D|--55555555----33333333----77777777----55555555-----------------------------|
A|--33333333----33333333----77777777----55555555-----------------------------|
E|--------------11111111----55555555----33333333-----------------------------|


Post-Chorus

e|---------------------------------------------------------------------------|
B|---------------------------------------------------------------------------|
G|--55555555----33333333--------------------x--5--------x--5-----------------|
D|--55555555----33333333----77777777----55--x--5----55--x--5-----------------|
A|--33333333----11111111----77777777----55--x--3----55--x--3-----------------|
E|--------------------------55555555----33--x-------33--x--------------------|


Verse 2
(Dein Blick durchbohrt mich...)
e|---------------------------------------------------------------------------|
B|---------------------------------------------------------------------------|
G|--55555555----33333333-----------------------------------------------------|
D|--55555555----33333333----77777777----55555555-----------------------------|
A|--33333333----11111111----77777777----55555555-----------------------------|
E|--------------------------55555555----33333333-----------------------------|
                                                                              
e|---------------------------------------------------------------------------|
B|---------------------------------------------------------------------------|
G|--55555555----33333333-----------------------------------------------------|
D|--55555555----33333333----77777777----55555555-----------------------------|
A|--33333333----11111111----77777777----55555555-----------------------------|
E|--------------------------55555555----33333333-----------------------------|


Chorus
(Komm benutz mich, tu alles was du willst...)
e|---------------------------------------------------------------------------|
B|---------------------------------------------------------------------------|
G|--55555555-----------------------------------------------------------------|
D|--55555555----33333333----77777777----55555555-----------------------------|
A|--33333333----33333333----77777777----55555555-----------------------------|
E|--------------11111111----55555555----33333333-----------------------------|


Solo - Haven't tabbed it yet - will add this part later on!


Verse 3
(Dein Gesäß ist ein Magnetfeld...)
e|---------------------------------------------------------------------------|
B|---------------------------------------------------------------------------|
G|--55555555----33333333-----------------------------------------------------|
D|--55555555----33333333----77777777----55555555-----------------------------|
A|--33333333----11111111----77777777----55555555-----------------------------|
E|--------------------------55555555----33333333-----------------------------|


Chorus
(Komm benutz mich, tu alles was du willst...)
e|---------------------------------------------------------------------------|
B|---------------------------------------------------------------------------|
G|--55555555-----------------------------------------------------------------|
D|--55555555----33333333----77777777----55555555-----------------------------|
A|--33333333----33333333----77777777----55555555-----------------------------|
E|--------------11111111----55555555----33333333-----------------------------|


Outro
e|---------------------------------------------------------------------------|
B|---------------------------------------------------------------------------|
G|--55555555----33333333-----------------------------------------------------|
D|--55555555----33333333----77777777----55555555-----------------------------|
A|--33333333----11111111----77777777----55555555-----------------------------|
E|--------------------------55555555----33333333-----------------------------|

e|---------------------------------------------------------------------------|
B|---------------------------------------------------------------------------|
G|--55555555----33333333--------------------x--5--------x--5-----------------|
D|--55555555----33333333----77777777----55--x--5----55--x--5-----------------|
A|--33333333----11111111----77777777----55--x--3----55--x--3-----------------|
E|--------------------------55555555----33--x-------33--x--------------------|
Tap to rate this tab
# A B C D E F G H I J K L M N O P Q R S T U V W X Y Z