Song name
# A B C D E F G H I J K L M N O P Q R S T U V W X Y Z

Boehse Onkelz - Boeses Maerchen tab

tabed by: w.Lam
email: wigi_1990@web.de

e--------------------------------------------------------|
h----------------------- --------------------------------|
g-7h9-7----7-9--------------------------------- ---------|
d--------10------10-7-7--------7h10-10-10-7--------------|
A------------------ --------10---------------------------|
E------------------------------------------ -------------|

e--------------------------------------------------------------- ---|
h-------------------------------------------------------------------|
g-7h9-7- --7-9-10-10-9----------------9----12-14-12-10-12-10-9------|
D--------10-------------10-9-7-9 -10---10---------------------------|
A---------------------------------------------- --------------------|
E---------------------------------------------------------- --------|

e-20-17------20-17---------20-17------------------------------|
h---------17-- -------17---------17---------------------------|
g------------------------------- -----------------------------|
d-------------------------------------------------- ----------|
a-------------------------------------------------------------|
e----------- -------------------------------------------------|
Tap to rate this tab
# A B C D E F G H I J K L M N O P Q R S T U V W X Y Z