Song name
# A B C D E F G H I J K L M N O P Q R S T U V W X Y Z

Boehse Onkelz - Nekrophil tab

Song:    Nekrophil
Artist:  Böhse Onkelz
Album:   Es ist soweit


Intro: "Verzerrt"

E |-----------------|-----------------|
H |-----------------|-----------------|
G |-----------------|-----------------|
D |--2^3-----6^5----|--2^3------------|
A |--2^3-----6^5----|--2^3------------|
E |------0-0-----0-0|------0-0-0-0-0-0|


Verse: "Verzerrt"

E |-----------------|-----------------|
H |-----------------|-----------------|
G |-----------------|-----------------|
D |--2^3-----6^5----|--2^3-----6^5-6^5|
A |--2^3-----6^5----|--2^3-----6^5-6^5|
E |------0-0-----0-0|------0-0--------|


Refrain:

E|---------------------------------------|
H|---------------------------------------|
G|---------2---------------2-------------|
D|-2-5-4-5---5-4-5-2-5-4-5---5-4h5p4h5p*-|
A|---------------------------------------|
E|---------------------------------------|

beim letzten Mal:

E|-----------------|-----------|
H|-----5-----------|-----------|
G|----(5)-3--4--3--|-3h4p3h4p3-|
D|--2--------------|-----------|
A|-----------------|-----------|
E|-----------------|-----------|


Bridge:

|: E F# G  D E(7) C :|


Solo:   (das wird während dem Bass-solo gespielt)

E|---------------|-10-8-7-8-7---------------||------------------|
H|-----7---8-----|------------8-8-/-10-10-\-||------------------|
G|--9------------|--------------------------||-9-(Trem.Vibrato)-|
D|---------------|--------------------------||------------------|
A|---------------|--------------------------||------------------|
E|---------------|--------------------------||------------------|

Ende:  (Clean)
        
E|-------------------||-----------0----------|
H|-------------------||---------0------------|
G|-------------------||-------0--------------|
D|-2r----------------||-----2----------------|
A|-2r----------------||---2------------------|
E|-0r----------------||-0--------------------|

Fortführung - Live in Dortmund:

> mit Phaser

E|----------------------------------------------------|
H|----------------------------------------------------|
G|----------------------------------------------------|
D|-------------------------------------7/999*-7/999*--|
A|-2-2----12\\-----5-5---5/7-7---12\\--5/777*-5/777*--|
E|-0-0----12\\-----3-3---3/5-5---12\\-----------------|

Das eigentliche Solo konnte ich nirgends finden. 
Wer geil wenn das mal einer tabben würde
Tap to rate this tab
# A B C D E F G H I J K L M N O P Q R S T U V W X Y Z