Song name
# A B C D E F G H I J K L M N O P Q R S T U V W X Y Z

Bolt Thrower - Anti-tank Dead Armour tab

                Intro                         x3
|--------------[--------------------------------]
|--------------[--------------------------------]
|--------------[--------------------------------]
|--------------[--------------------------------]
|--------4-7-3-[--------------------------4-7-3-]
|--------------[0-------------------------------]


Verse                                                         x12
|--------------------------------|--------------------------------|
|--------------------------------|--------------------------------|
|--------------------------------|--------------------------------|
|--------------------------------|--------------------------------|
|--------------------------------|------------------------4-7-3---|
|0-0-0-0-0-0-0-0-0-0-0-0-0-0-0-1-|0-0-0-0-0-0-0-3-----0-----------|

Chorus                                                        x4
|--------------------------------|--------------------------------|
|--------------------------------|--------------------------------|
|--------------------------------|--------------------------------|
|--------------------------------|--------------------------------|
|9-------------5~--------------8~|--------------6~--------6-8-5---|
|--0-0-0-0-0-0-----0-0-0-0-0-0---|--0-0-0-0-0-0-----0-0-0---------|

Verse   x8
Chorus  x4
Intro   x2
Verse   x8 (solo)
Chorus  x8

Outro                                                         x14
|--------------------------------|--------------------------------|
|--------------------------------|--------------------------------|
|--------------------------------|--------------------------------|
|--------------------------------|--------------------------------|
|--------------------------------|----------3---6~----------------|
|0-0-0-0-0-0-0-0-0-0-0-0-0-0-3-3-|3-3-0-0-0--------------7\---3---|
Tap to rate this tab
 
# A B C D E F G H I J K L M N O P Q R S T U V W X Y Z