Song name
# A B C D E F G H I J K L M N O P Q R S T U V W X Y Z

Bomfunk Mcs - Freestyler tab

Standard tuning


Slide Guitar intro bit (this part isn't always heard, like they often leave it put in
remixes and when playing it on the radio) 

     D                  A                  E                   E
e--//5~~--------------//5~~--------------//7~~---------------//7~~-|
B--//7~~--------------//5~~--------------//9~~---------------//9~~-|
G--//7~~--------------//6~~--------------//9~~---------------//9~~-|
D--//7~~----2-2/5p4\2-//7~~----2-2/5p4\2-//9~~---5-5-5-5p4\2-//9~~-|
A--//5~~--------------//7~~--------------//7~~---------------//7~~-|
E---------------------//5~~----------------------------------------|


e-----------------|
B----------------o|
G-----------------|
D-----2-2/5p4\2---| x2
A----------------o|
E-----------------|



Main Bit

e----15---15--------14---14--------10---10--------12---12----|
B---17---17---17---17---17---17---13---13---13---15---15-15-o|
G--16---16---16---16---16---16---12---12---12---14---14------|
D------------------------------------------------------------| x lots
A-----------------------------------------------------------o|
E------------------------------------------------------------|

It goes quite fast but it's easy enough to play...the bass part is the more important
part in the bridge and break of this song but in verse and chorus this guitar bit can
be used.

Hope it can be of help.
Tap to rate this tab
 
# A B C D E F G H I J K L M N O P Q R S T U V W X Y Z