Song name
# A B C D E F G H I J K L M N O P Q R S T U V W X Y Z

Bon Jovi Jon - Ugly tab

Artist: Dir En Grey
Song: Ugly
Tuning: drop d
Guitar 1:
|--------------------------------------------------------------------|
|-----13--------------(13)--------12----------------(12)-------------|
|-10-(10)-------------(10)----10-(10)---------------(10)-------------|
|--------------------------------------------------------------------|x6
|--------------------------------------------------------------------|
|--------------------------------------------------------------------|
Guitar 2: (comes in 3rd time)
|--------------------------------------------------------------------|
|--------------------------------------------------------------------|
|--------------------------------------------------------------------|repeat 
|--------------------------------------------------------------------|until
|--------------------------------------------------------------------|distraction
|-2h3p2---------------(2)-----2h3p2------------------(2)-------------|

Guitar 1:
|--------------------------------------------------------------------|
|-----13-------12----------------(12)--------------(12)--------------|
|-10-(10)--10—(10)---------------(10)--------------(10)--------------|
|--------------------------------------------------------------------|
|--------------------------------------------------------------------|x2
|--------------------------------------------------------------------|


Both Guitars:
|--------------------------------------------------------------------|
|--------------------------------------------------------------------|
|--------------------------------------------------------------------|
|--------------------------------------------------------------------|
|-3--2-----2—-3--2-----2--3--2-----2—-3/7-7-7-7----------------------|x8
|-3--2-----2--3--2-----2--3--2-----2—-3/7-7-7-7----------------------|

Repeat all

(Drums)

Guitar comes in
|--------------------------------------------------------------------|
|--------------------------------------------------------------------|
|--------------------------------------------------------------------|
|--------------------------------------------------------------------|
|-3--2-----2--3--2-----2--3--2-----2--3/7-7-7-7--3--2-----2--3--2----|x8
|-3--2-----2--3--2-----2--3--2-----2—-3/7-7-7-7--3--2-----2--3--2----|

that’s pretty much it.
Tap to rate this tab
 
# A B C D E F G H I J K L M N O P Q R S T U V W X Y Z