Song name
# A B C D E F G H I J K L M N O P Q R S T U V W X Y Z

Bon Jovi - Story Of My Life tab

k i thought i learned this song on here. but i guess i just figured it out my
self and forgot. oh well here it goes..

(piano Intro)

-------------------------------------------------------------------------------
Story of my life- Bon Jovi
Tabbed by:Matt
Email:dont worry bout it

Tuning:standard
figure out timing for intro

e|---------------------------------------------------------------------------|
B|---------------------------------------------------------------------------|
G|---------------------------------------555544------------------------------|
D|--5---7---9---12---2---4-5--10---------------------------------------------|
A|---keep strumming-all notes for intro--333322------------------------------|
E|--3---5---7---10---0---2-3--8----------------------------------------------|


Power Chords


G G
Yesterdays a memory

D D
Another Page In History

C
You sell yourself on hopes and dreams
A                         C
That leaves you feeling sideways.

ETC.

Chorus

e|---------------------------------------------------------------------------|
B|---------------------------------------------------------------------------|
G|---------------------------------------555544------------------------------|
D|--5---7---9---12---2---4-5--10---------------------------------------------|
A|---keep strumming-all notes for intro--333322------------------------------|
E|--3---5---7---10---0---2-3--8----------------------------------------------|

same as guitar intro


Fill 1:22


e|--------------------------------------------------------------|
B|--------------------------------------------------------------|
G|-x 12 x 12 11-12-x-12-x-12-11-12-x-12-x-12-11-12-555544-------|
D|--------------------------------------------------------------|
A|-------------------------------------------------333322-------|
E|--------------------------------------------------------------|

Solo


e|--------------------------------------------------------------------------|
B|--------------------------------------------------------------------------|
G|----12-12-12-12-12-11-12---12-12-12-12-12-11-12--12-12-12-12-12-11-12-----|
D|--------------------------------------------------------------------------|
A|----10-10-10-10-10-9--10---10-10-10-10-10-9--10--10-10-10-10-10-9--10-----|
E|--------------------------------------------------------------------------|
                                                       BENNDDDDDD
e|--------------------------------------------------------------------------|
B|----------------------------------------------------10-12-13--------------|
G|---12-12-12-12-12-11-12-14-14-12-12-11-11-12-12-----12-14-15---15~555544--|
D|--------------------------------------------------------------------------|
A|---10-10-10-10-10-9--10-12-12-10-10-9--9--10-12-------------------333322--|
E|--------------------------------------------------------------------------|

and thats about it. RATE.. comments?! thanks
Tap to rate this tab
 
# A B C D E F G H I J K L M N O P Q R S T U V W X Y Z