Guitaretab - guitar tabs
Song name
# A B C D E F G H I J K L M N O P Q R S T U V W X Y Z

Bon Jovi - Everyday tab

BON JOVI - EVERYDAY
------------------

Intro:  

Am - G - D/F# - F - E5


(Am)                       (G)
I used to be the kind of guy
                           (D/F#)
Who'd never let you look inside
              (F)
I'd smile when I was crying
(Am)                        (G)
I had nothing but a life to loose
                       (D/F#)
Thought I had a lot to proof
                   (F)    
In my life, there's no denying


(F)                     (G)
Goodbye to all my yesterdays
(F)                   (E5)
Goodbye, so long, I'm on my way


(Am)                      (C)
I've had enough of cryin'
                         (G)
Bleedin', sweatin', dyin'

Hear me when I say
       (F)           (E5)
Gonna live my life everyday
(Am)                    (C)
I'm gonna touch the sky
                               (G)
And I spread these wings and fly

I ain't here to play
           (F)          (G)       (Am)  heavy chords-> (F - G)
I'm gonna live my life everyday



Strange, everybody's feeling strange
       
                   (D/F#)
Never gonna be the same
                         (F)
Makes you wonder how the world keeps turning
(Am)                           (G)
Life, learning how to live my life
                           (D/F#)
Learning how to pick my fights
                    (F)
Take my shots while I'm still burning


(F)                         (G)
Goodbye to all those rainy nights
(F)                   (E5)  
Goodbye, so long, I'm moving on


(Am)                      (C)
I've had enough of cryin'
                         (G)
Bleedin', sweatin', dyin'

Hear me when I say
       (F)           (E5)
Gonna live my life everyday
(Am)                    (C)
I'm gonna touch the sky
                               (G)
And I spread these wings and fly

I ain't here to play
           (F)          (G)     
I'm gonna live my life everyday



       (D5) 
Hit the gas, 
take the wheel,
i just made myself a deal
           (F)                      
There ain't nothing gonna get in my way
Everyday


Solo:
     (Am)       (G)        (D/F#)                (F)     5       
e -------------------------------------------------------------- 
B ---10--10/12--12--12/0----------------------------------------
G --------------------------------------------------------------
D --------------------------------------------------------------
A ----------------------7/8/7/8--7/8/7---5----7/8/7/8--7/8/7---5
E --------------------------------------------------------------
     (Am)                        (G)
e --------------------------------------------------------------
B ---10---10-8-10---8-10--8-10---12---12-10-12---10-12--10-12---
G --------------------------------------------------------------
D --------------------------------------------------------------
A --------------------------------------------------------------
E --------------------------------------------------------------
    (D/F#)      (F)  (Em)            (F)
e --------------10----12-----12/17---17------------------------- 
B ---13---------------------------------------------------------
G --------------------------------------------------------------
D --------------------------------------------------------------
A --------------------------------------------------------------
E --------------------------------------------------------------


                     (E5)
Goodbye, so long, I'm moving on


(Am)                      (C)
I've had enough of cryin'
                         (G)
Bleedin', sweatin', dyin'

Hear me when I say
       (F)           (E5)
Gonna live my life everyday
(Am)                    (C)
I'm gonna touch the sky
                               (G)
And I spread these wings and fly

I ain't here to play
           (F)          (G)       (Am)
I'm gonna live my life everyday

(Am)  (C)  (G)           (F)          (E5)
I, oh I, oh I, I'm gonna live my life everyday
(Am)                     (C)                                 (G)
I (gonna touch the sky), oh I (spread these wings and fly), oh I
           (F)           
I'm gonna live my life everyday

[ Tab from: http://www.guitaretab.com/b/bon-jovi/23636.html ]
Related for Everyday tab
Advertisement will be closed in 10 seconds