Song name
# A B C D E F G H I J K L M N O P Q R S T U V W X Y Z

Bon Jovi - Have A Nice Day tab

Bon Jovi - Have A Nice Day

Richie uses one of those guitar how it has two fretboards and one of the fret boards he 
the capo on the second fret for the song but for the solo he uses the other part that 
have the capo
I don't know the tuning but i think it's standard tuning


     Intro
e|-----------------------------------------|
B|-----3-----3-----3-----3-----2-----2-----| Play This
G|-----4-----2-----0-----2-----2-----2-----| Three Times
D|-----4-----0-----0-----0-----2-----2-----|
A|-----2-----0-----------0-----0-----0-----|
E|-----------------3-----------------------|


     Verse
e|--------------------------------------------------------------------|
B|---3---x-x-x-x-x-x-x-x-x-x-x-x-x--3---3-3-3---3-3-3---3-3-3---2-2---| Play
G|---4---x-x-x-x-x-x-x-x-x-x-x-x-x--4---4-4-2---2-2-0---0-0-0---2-2---| This
D|---4---x-x-x-x-x-x-x-x-x-x-x-x-x--4---4-4-0---0-0-0---0-0-0---2-2---| Two
A|---2---x-x-x-x-x-x-x-x-x-x-x-x-x--2---2-2-0---0-0-------------0-0---| Times
E|--------------------------------------------------3---3-3-3---------|


e|-----|            |-----|            |-----|            |-----|
B|--3--| Play This  |--3--| Play This  |--0--| Play This  |--3--| Play This
G|--4--| Sixteen    |--2--| Sixteen    |--0--| Sixteen    |--0--| Sixteen
D|--4--| Times      |--0--| Times      |--2--| Times      |--0--| Times
A|--2--|            |--0--|            |--2--|            |-----|
E|-----|            |-----|            |--0--|            |--3--|


     Chorus
e|-2-|            |-3-|            |-2-|            |-0-|
B|-3-| Play This  |-3-| Play This  |-3-| Play This  |-2-| Play This
G|-4-| Eight      |-0-| Eight      |-2-| Eight      |-2-| Eight
D|-4-| Times      |-0-| Times      |-0-| Times      |-2-| Times
A|-2-|            |---|            |-0-|            |-0-|
E|---|            |-3-|            |---|            |---|

Play That Part Of The Chorus Three Times Altogether Then Play This Part

e|-----0--------0-------0------0----0--0-----3-3--|
B|-----0--------0-------0------0----0--0-----3-3--|
G|-----0--------0-------0------0----0--0-----0-0--|
D|-----2--------2-------2------2----2--2-----0-0--|
A|-----2--------2-------2------2----2--2----------|
E|-----0--------0-------0------0----0--0-----3-3--|
     World gets in___ my face_____  I say

e|----------------------------------------------------------------|
B|-------------3---3---3---3---2------2---3---3---3---3---2---2---|
G|-------------4---2---0---2---2------2---4---2---0---2---2---2---|
D|-------------4---0---0---0---2------2---4---0---0---0---2---2---|
A|-------------2---0-------0---0------0---2---0-------0---0---0---|
E|---------------------3--------------------------3---------------|
  Have a nice day,            Have a nice day________


     Solo
e|---------------------9------------------------12----------------0-0-0---|
B|---12bvvv--9--12bv-----12-9----------------------12---------------------|
G|----------------------------11-11b-9----9-11b-------11bp9---------------|
D|-------------------------------------11-------------------11vvv---------|
A|------------------------------------------------------------------------|
E|------------------------------------------------------------------------|

e|---------9-----9-9-------9-----9-9-------9-----9-9-------9-----9-9-12b--|
B|-------9---12b---------9---12b---------9---12b---------9---12b----------|
G|---11b-------------11b-------------11b-------------11b------------------|
D|------------------------------------------------------------------------|
A|------------------------------------------------------------------------|
E|------------------------------------------------------------------------|

e|-----12b---12-11-11----------------0-0---0-0---0-0---0-0---0---0-0-0----|
B|--------------------12-12-------10-----9-----5-----0-------------0-0----|
G|--------------------------11v----------------------------2---1---2-2----|
D|------------------------------------------------------------------------|
A|------------------------------------------------------------------------|
E|------------------------------------------------------------------------|

And the coda is just the same as the intro
Tap to rate this tab
# A B C D E F G H I J K L M N O P Q R S T U V W X Y Z