Song name
# A B C D E F G H I J K L M N O P Q R S T U V W X Y Z

Bon Jovi - Bitter Wine tab

Help us improve GuitareTab! Take a short survey!
s=slide

e|----------12--------------------------------------12--------------------| 
B|----14-16----14-14---------14-16-14------------16----14-14--------------| 
G|---------------------------14-------14----------------------------------| 
D|-------------------2/3-2s1-------------2/3-2s1-------------2/3-2s1-12s14| 
A|------------------------------------------------------------------------| 
D|------------------------------------------------------------------------| 

e|--------12------------------------------------------12------------------| 
B|-----16----14-14-----------14-16-14---------------16--14-14-------------| 
G|---------------------------14-------14----------------------------------| 
D|1-----------------2/3-2s1--------------2/3-2/3-2s1----------12-14-------| 
A|------------------------------------------------------------------------| 
D|------------------------------------------------------------------------| 

e|-----------| 
B|-----------| 
G|------1----| 
D|1-2s3------| 
A|-----------| 
D|-----------| 
Related for Bitter Wine tab