Song name
# A B C D E F G H I J K L M N O P Q R S T U V W X Y Z

Bon Jovi - Fast Cars tab

-------------------------------------------------------------------------------
			     Fast Cars - Bon Jovi
-------------------------------------------------------------------------------
Tabbed by:pelanmar
Email:pelanmar@yahoo.com

Tuning:Standard

Ok seems like its the first tab for this song on the internet...i got it by ear
and it seems ok to me so let me know what you think...any corections are welcomed.

Intro and Verse:

e|---------------------------------------------------------------------------|
B|-----------14---------------16---------------16---------------16-----------|
G|-------16-----16--------16------16-------16------16-------16------16-------|
D|--------------------14-----------------------------------------------------|
A|---14--------------------------------16---------------12-------------------|
E|---------------------------------------------------------------------------|

Bridge and Chorus:

*I think its about 8 times each chord
e|---------------------------------------------------------------------------|
B|---------------------------------------------------------------------------|
G|----------9----------------------------------------------------------------|
D|---9------9-----11------7--------------------------------------------------|
A|---9------7-----11------7--------------------------------------------------|
E|---7------------9-------5--------------------------------------------------|

I think thats about all to this awsome song hope you like it!!!

Rock On!!
Tap to rate this tab
# A B C D E F G H I J K L M N O P Q R S T U V W X Y Z