Song name
# A B C D E F G H I J K L M N O P Q R S T U V W X Y Z

Bon Jovi - Thick As Thieves tab

Title: Thick As Thieves
SubTitle: Solo
Artist: Bon Jovi
Album: What About Now
Tempo = 110
Electric Guitar

Legend
L - tied note
x - dead note
h - hammer on/pull off
b - bend
s - slide
~ - vibrato
g - ghost note
> - accentuated note
t - trill
M - palm mute
. - staccato
P - popping (bass)
S - slapping (bass)
+ - tapping
W - wide vibrato
< - fade in
w - whammy bar
= - tremolo picking
v - brush up
^ - brush down
V - pick stroke up
n - pick stroke down


E |----|----|-------|----------------------------------------|
B |----|----|--7b8--|--7b8---------------7b8----8rb7-5-------|
G |----|----|-------|-----------------------------------7----|
D |----|----|-------|----------------------------------------|
A |----|----|-------|----------------------------------------|
E |----|----|-------|----------------------------------------|


--------------------------------------------------------------------------------|
--5--7-----------------------------------------------------------------------5--|
--------------------------------------------------------------------------------|
--------------------------------------------------------------------------------|
--------------------------------------------------------------------------------|
--------------------------------------------------------------------------------|


-------|--14b15----14b15-----|--14b15-------14b15-----15rb14--12------|
--5----|---------------------|-----------------------------------15---|
-------|---------------------|----------------------------------------|
-------|---------------------|----------------------------------------|
-------|---------------------|----------------------------------------|
-------|---------------------|----------------------------------------|


--12-14---------------------------------------------------------14b15rb14-------|
--------------------------------------------------------------------------------|
--------------------------------------------------------------------------------|
--------------------------------------------------------------------------------|
--------------------------------------------------------------------------------|
--------------------------------------------------------------------------------|


-----------|--12---|----|----||
-----------|-------|----|----||
-----------|-------|----|----||
-----------|-------|----|----||
-----------|-------|----|----||
-----------|-------|----|----||
Tap to rate this tab
# A B C D E F G H I J K L M N O P Q R S T U V W X Y Z