Song name
# A B C D E F G H I J K L M N O P Q R S T U V W X Y Z

Bon Jovi - I Believe tab

Standart Tuning
             Intro + Verse:
|-x-x-x-x-:||---------------------------------------------------------------|
|-x-x-x-x-:||---------------------------------------------------------------|
|-x-x-x-x-:||---5-7-5-7-7--5-7-5-7-7----10-12-10-12-12--10-12-10-12-12------|
|-x-x-x-x-:||---5-7-5-7-7--5-7-5-7-7----10-12-10-12-12--10-12-10-12-12------|
|-x-x-x-x-:||---5-5-5-5-5--5-5-5-5-5----10-10-10-10-10--10-10-10-10-10------|
|-x-x-x-x-:||---------------------------------------------------------------|

Bridge:             Chorus:
|-------------------2---------2---------------------------------2---------2|
|-------------------3--10-8~--3--10-8~--------------------------3--10-8~--3|
|2--2--2--2--2--2---2--9--7~--2--9--7~--4-2-4-------2-0-2-------2--9--7~--2|
|2--2--2--2--2--2---0--7--5~--0--7--5~--4-2-4-5-3-5-2-0-2-5-3-5-0--7--5~--0|
|0--0--0--0--0--0-----------------------2-2-2-5-3-5-0-0-0-5-3-5------------|
|-3~----3~----3~------------------------------3-3-3-------3-3-3------------|

Intro
Verse
Bridge
Chorus
Intro
Verse
Bridge
Chorus

Solo:it's not really correct...                    Repeat
|---------------------------------------10-10-10-10----------------|
|--10~-10-10-10-10-7-7~-7----------7-7-----------------------------|
|-------------------9--9-9-7----7-9-9------------------------------|
|----------------------------7-9-----------------------------------|
|---------------------------9--------------------------------------|
|------------------------------------------------------------------|

after solo:

|------------------------------|
|------------------------------|
|-4-2-4--2-0-2---------2-0-2---|
|-4-2-4--2-0-2--5-3-5--2-0-2---|
|-2-2-2--0-0-0--5-3-5--0-0-0---|
|---------------3-3-3----------|
 Then:

Chorus
Outro (=Intro)

Good Luck :)
Tap to rate this tab
 
# A B C D E F G H I J K L M N O P Q R S T U V W X Y Z